Chordie logo


Fight Until We Die    Manowar



Manowar - Fight Until We Die
Tabbed By: Rin0
Email: mariusv_j@hotmail.com

Tuning: Standard (E A D G B E)



Intro      PART 1                 PART 2
P.M..........................|  ........   ........    |
E|---------------------------|-------------------------|
B|---------------------------|-------------------------|
G|---------------------------|-------------------------|
D|-2-2-2-2-2-2-2-2-2-2-2-2-2-|-------------------------|   X4  at the last time play only PART 1 Intro.
A|-0-0-0-0-0-0-0-0-0-0-0-0-0-|-3-3-3-3-3-3-3-3-3-3-3-5-|
E|---------------------------|-1-1-1-1-1-1-1-1-1-1-1-3-|


Verse        PART 1                    PART 2
P.M                       ........... ............. ........... ...   ...  |
E|---------------------|---------------------------------------------------|
B|---------------------|---------------------------------------------------|
G|---------------------|---------------------------------------------------|
D|-2-2-------2-2-------|-------------2-2-2-2-2-2-2-------------------------|
A|-0-0-3-3-5-0-0-3-3-5-|-5-5-5-5-5-5-0-0-0-0-0-0-0-5-5-5-5-5-5-3-3-3-2-2-2-|
E|-----1-1-3-----1-1-3-|-3-3-3-3-3-3---------------3-3-3-3-3-3-1-1-1-0-0-0-|


Chourse
   PART 1      PART 2           PART 3    PART 4    PART 5   PART 6    PART 7

E|---------|-----------|     |---------|---------|---------|---------|---------|
B|---------|-----------|     |---------|---------|---------|---------|---------|
G|---------|-----------| x2  |---------|---------|---------|---------|---------|
D|-2-2-2-2-|-----------|     |---------|-2-2-2-2-|---------|---------|---------|
A|-0-0-0-0-|-3-3-3-3-5-|     |-5-5-5-5-|-0-0-0-0-|-5-5-5-5-|-3-3-3-3-|-2-2-2-2-|
E|---------|-1-1-1-1-3-|     |-3-3-3-3-|---------|-3-3-3-3-|-1-1-1-1-|-0-0-0-0-|

some times it plays with this after PART 7

E|---------|
G|---------|
B|---------|
D|-3-2-----|
A|-----3-2-|
E|---------|



Important: The song above is NOT stored on the Chordie server. The original song is hosted at www.xguitar.com. Chordie works as a search engine and provides on-the-fly formatting. Chordie does not index songs against artists/composers will. To remove this song please click here.

This song is displayed as text-only. Transposing and tuning is only available for chordpro-songs.

Login - add to songbook

Rating click stars to rate

Layout
Accuracy

SHARE PAGE  




You need to log in to post comments