Guitar Tabs, Chords and Lyrics


Gone Crazy    Marcy Playground



intro
e|-4-4-2-4---5-5-2-2---5-5-2-2-5--0-2-4------0--
B|----------------------------------------0-----
G|-4-4-2-4---5-5-2-2---5-5-2-2-5--1-2-4-1---1---
D|----------------------------------------------
A|----------------------------------------------
E|----------------------------------------------

verse
e|-0---4-4-4--2-2-2-2------4-4-4--2-2-2-2--
B|-0---5-5-5--3-3-3-3------5-5-5--3-3-3-3--
G|-1---4-4-4--2-2-2-2--1---4-4-4--2-2-2-2--
D|-2---0-0-0--0-0-0-0--2---0-0-0--0-0-0-0--
A|-0-------------------0-------------------
E|-----------------------------------------

this is the part rite before the part w/ the bass
e|-4-4-4-0--2-2-2-0-------------------
B|-5-5-5-5--3-3-3-3---1-1-1-1---------
G|-4-4-4-4--2-2-2-2---2-2-2-2--1-1-1--
D|--------------------2-2-2-2--2-2-2--
A|-----------------------------2-2-2--
E|------------------------------------

chorus
e|-5-4-2-0---5-4-2-0---5-4-2-0--7---0-2-4------0--
B|------------------------------------------0-----
G|-5-4-2-1---5-4-2-1---5-4-2-1--7---1-2-4-1---1---
D|------------------------------------------------
A|------------------------------------------------


Important: The song above is NOT stored on the Chordie server. The original song is hosted at www.xguitar.com. Chordie works as a search engine and provides on-the-fly formatting. Chordie does not index songs against artists'/composers' will. To remove this song please click here.

This song is displayed as text-only. Transposing and tuning is only available for chordpro-songs.

Login - add to songbook

Rating click stars to rate

Layout
Accuracy

SHARE PAGE  




You need to log in to post comments