Guitar Tabs, Chords and Lyrics


Opium   Marcy Playground

  [F#M]          [A]        [A5]        [G]        [D]      [D5]        [E]       
|---2---|---0---|---x---|---3---|---2--|--x---|---0---|
|---3---|---2---|---x---|---0---|---3--|--x---|---0---|
|---4---|---2---|---x---|---0---|---2--|--x---|---1---|
|---4---|---2---|---7---|---0---|---0--|--7---|---2---|
|---2---|---0---|---7---|---2---|---x--|--5---|---2---|
|---2---|---0---|---5---|---3---|---x--|--x---|---0---|



During the Verses, the G is played like this:

		|-3-3------3-3-|
		|-0-0------0-0-|
		|-0-0------0-0-|
		|-0-0----------|
		|-2-2----------|
		|-3-3--3-0-----|


Intro:

F#M A G D A (2x)


1st Verse:

[F#M]Blue like ..[A]....     [G]                   [D]           [A]
[F#M]I'm      ...[A]...      [G]                   [D]           [A]
[E]I'm    so .[F#M].....        [D]        [A]
[E]I'm    in .[F#M]....         [D]        [A]
[G]oh ....                 [D]    [A]    [D]

Bridge:
(distortion)
[D5]Maaaao
[A5]Maaaao

[E]I'm    so .[F#M].....        [D]        [A]
[E]I'm    in .[F#M]..           [D]        [A]
[G]oh .....[D] [A] [D]

Important: The song above is NOT stored on the Chordie server. The original song is hosted at www.xguitar.com. Chordie works as a search engine and provides on-the-fly formatting. Chordie does not index songs against artists'/composers' will. To remove this song please click here.

Text color:
Chord color:
Chord grids: 
Font size:    
Page size: 

A A5 D D5 E F#m G
variations - click chord images

Login - add to songbook

Transpose chords

Tuning

Rating click stars to rate

Layout
Accuracy

SHARE PAGE  




You need to log in to post comments