Guitar Tabs, Chords and Lyrics


No One's Boy    Marcy Playground



PM   *
Slide   /


Intro

e|------------------------------------------------
B|------------------------------------------------
G|------------------------------------------------
D|--3---3---3-3/7---7---7-7/5---5---5-5-5-5---5---    2x
A|--3---3---3-3/7---7---7-7/5---5---5-5-5-5---5---
E|--1---1---1-1/5---5---5-5/3---3---3-3-3-3---3---


Verse

e|------------------------------------------------
B|------------------------------------------------
G|------------------------------------------------
D|--3---3---3-/7-7-7-7--7-7/5---5---5-5-5-5---5---
A|--3---3---3-/7-7-7-7--7-7/5---5---5-5-5-5---5---
E|--1---1---1-/5-5-5-5--5-5/3---3---3-3-3-3---3---
    *   *      * * *

Pre-Chorus

e|---------------------------------------------------
B|---------------------------------------------------
G|--5--5-5-5--5--5-5-5-------------------------------
D|--5--5-5-5--5--5-5-5--7--7-7-7--2--2-2-2-----------
A|--3--3-3-3--2--2-2-2--7--7-7-7--2--2-2-2-----------
E|----------------------5--5-5-5--0--0-0-0-----------

Chorus

e|----------------------------------------------
B|----------------------------------------------
G|----------------------------------------------
D|--7--7-7-7--5--5-5-5--3--3--3-3-3-3-3----------
A|--7--7-7-7--5--5-5-5--3--3--3-3-3-3-3----------


Important: The song above is NOT stored on the Chordie server. The original song is hosted at www.xguitar.com. Chordie works as a search engine and provides on-the-fly formatting. Chordie does not index songs against artists'/composers' will. To remove this song please click here.

This song is displayed as text-only. Transposing and tuning is only available for chordpro-songs.

Login - add to songbook

Rating click stars to rate

Layout
Accuracy

SHARE PAGE  




You need to log in to post comments