Guitar Tabs, Chords and Lyrics


Paper Dolls   Marcy Playground

[G] Who's the ca[D]ptain of the s[B]hip I think it's si[C]nking
[G]  I know I d[D]on't know what I kn[B]ow I don't kn[C]ow what was I t[G]hink[D]ing

Pre Chorus:
P[G]aper Do[D]lls
B[B]efore The fo[C]lding
Sc[G]hools like ma[D]lls
T[B]hat all are cl[C]osing
Af[G]raid to da[D]nce
D[B]on't talk to stra[C]ngers
Av[G]oid ro[D]mance
R[B]ead what the s[C]ign says
[D] Parental guidance is advised
[C] Another teenager surprised


Chorus:
b[G]lah, blah, b[D]lah, blah
Fe[B]els so g[C]ood to be
a[G]live, blah, b[D]lah, blah
Y[B]eah, life was e[C]asier at
f[G]ive, blah, b[D]lah, blah
F[B]eels so go[C]od to be
al[G]ive, blah, b[D]lah, blah
Y[B]eah, life was ea[C]sier at
f[G]ive.[D]
[B]  What was I thi[C]nking?

Verse 2: (This verse just skip the B,C intro)
I can't make up my mind
Can't even make up my bed
Yeah, I should clean up my act
But first I clean up my head
My books are on the shelf
I don't apply myself
You always check up on me
But check yourself,(oh)

Pre Chrorus:
Paper Dolls
Before the folding
Schools like malls
That all are closing
Afraid to dance
Don't talk to strangers
Avoid romance
Read what the sign says
Parental Guidance is advised
Another one us survives

Chorus:
blah, blah, blah, blah
Feels so good to be
alive, blah, blah, blah
Yeah, life was easier at
five, blah, blah, blah
Feels so good to be
alive, blah, blah, blah
Yeah, life was easier at...

Bridge:
F[C]ive..
As b[D]ad as it is in my sc[C]hool
Yeah, as bad as it i[D]s,
(Start soloing)
it's still my school


Solo:

Riff 1
E--10-7-77-8h7------------------------------------------------|
B------------------10-8-88-10-10-3-3-3-3-3-3-3----------------|
G-------------------------------------------------------------|
D-------------------------------------------------------------|
A-------------------------------------------------------------|
E-------------------------------------------------------------|
E--10-7-77-8h7------------------------------------------------|
B------------------10-8-88-10-10-3(ring)----------------------|
G-------------------------------------------------------------|
D-------------------------------------------------------------|
A-------------------------------------------------------------|
E-------------------------------------------------------------|


Riff 2:
E--5-7-5-7-5-7-5-7-8-7-5-5----5-7-5-7-5-7-5-7-10-8-7-5--------------|
B-------------------------------------------------------------------|
G-------------------------------------------------------------------|
D-------------------------------------------------------------------|
A-------------------------------------------------------------------|
E-------------------------------------------------------------------|
E--5-7-5-7-5-7-5-7-8-7-5-5----5-7-5-7-5-7-5-7-10-8-7-5--------------|
B-------------------------------------------------------------------|
G-------------------------------------------------------------------|
D-------------------------------------------------------------------|
A-------------------------------------------------------------------|
E-------------------------------------------------------------------|


Outro: (Play solo riff 2)(W/ guitar one playing G,D,B,C)
At Five. What was I thinking?
At Five. What was I thinking?

Important: The song above is NOT stored on the Chordie server. The original song is hosted at www.xguitar.com. Chordie works as a search engine and provides on-the-fly formatting. Chordie does not index songs against artists'/composers' will. To remove this song please click here.

Text color:
Chord color:
Chord grids: 
Font size:    
Page size: 

B C D G
variations - click chord images

Login - add to songbook

Transpose chords

Tuning

Rating click stars to rate

Layout
Accuracy

SHARE PAGE  




You need to log in to post comments