Guitar Tabs, Chords and Lyrics


America   Marcy Playground

[G]3  [D]2  [C]0
0 3 1
0 2 0
0 0 2
2 x 3
3 x x

Intro:
[G]    [G]    [G]    [G]                        


Verse
[G]Lucy came[G] to the timberline

[G]Climbed up onto Ra[G]iner and

[D]Looked out over Wa[D]shington
[G]          [G]                           
[D]Swore she [D]could see the appletrees
[G]          [G]  And she said
Chorus
[C]Ooo  [D]Ooo  Oh I ne[G]ver wanna le[C]ave

[C]Ooo O[G]oo this pl[D]ace

[C]Ooo O[D]oo Yes I al[G]ways wanna [C]be
[C]Right he[D]re
Bridge
[A]Find a p[G]lace to call ho[A]me  [G]

[A]Any pla[G]ce to call ho[A]me   [G]

Solo
e-------------------------------------------------------------------------------------------
B-------------------------------------------------------------------------------------------
G-----------0----------------0--------------------------------0-----------------------------
D-------2------0---------0-----4---5---7---9---9---0---2--------2-----2p0---0-----5--5--5---
A---3-------------2--0----------------------------------------------------------------------
E-------------------------------------------------------------------------------------------
e------------------------------------------------------------------------
B------------------------------------------------------------------------
G------------------------------------------------------------------------
D----4---4---4---4--2--2-2-2-2-2-2---------------------------------------
A-----------------------3-3-3-3-3---3-2------5---2---0--3--0---0h2-2-----
E---------------------------------------3--0---------------------------0-


Important: The song above is NOT stored on the Chordie server. The original song is hosted at www.xguitar.com. Chordie works as a search engine and provides on-the-fly formatting. Chordie does not index songs against artists'/composers' will. To remove this song please click here.

Text color:
Chord color:
Chord grids: 
Font size:    
Page size: 

A C D G
variations - click chord images

Login - add to songbook

Transpose chords

Tuning

Rating click stars to rate

Layout
Accuracy

SHARE PAGE  




You need to log in to post comments