Guitar Tabs, Chords and Lyrics


Love Bug    Marcy Playground



Marcy Playground - Love Bug
Tabbed By: Savage
Email: thesavagebeastman@hotmail.com

Tuning: Standard (E A D G B E)



E ---------------------------------------------------------
B ---------------------------------------------------------
G ---------------------------------------------------------
D ---------------------------------------------------------
A ---2---3-2---2---2---3-2---2---2---2-3---2---2---3-2---2-
E -0---0-----0---0---0-----0---2---2-----2---2---2-----2---

E ---------------------------------------------
B ---------------------------------------------
G ---------------------------------------------
D ---------------------------------------------
A ---2---3-2---2---2---3-2---2-----2-------4---
E -0---0-----0---0---0-----0---3-3---3-5-5---5-

E ---------------------------------------------------------
B ---------------------------------------------------------
G ---1---2-1---1---1---2-1---1---1---2-1---1---1---2-1---1-
D -2---2-----2---2---2-----2---1---1-----1---1---1-----1---
A ---------------------------------------------------------
E ---------------------------------------------------------

E ---------------------------------------------------------
B ---------------------------------------------------------
G ---1---2-1---1---1---2-1---1---1---2-1---1---1---2-1---1-
D -2---2-----2---2---2-----2---1---1-----1---1---1-----1---
A ---------------------------------------------------------


Important: The song above is NOT stored on the Chordie server. The original song is hosted at www.xguitar.com. Chordie works as a search engine and provides on-the-fly formatting. Chordie does not index songs against artists'/composers' will. To remove this song please click here.

This song is displayed as text-only. Transposing and tuning is only available for chordpro-songs.

Login - add to songbook

Rating click stars to rate

Layout
Accuracy

SHARE PAGE  




You need to log in to post comments