Guitar Tabs, Chords and Lyrics


She Will Be Loved    Maroon 5



maroon 5 - she will be loved(main riff 100% right
Tabbed By: stevie
Email: urjustjealouscausethevoicesaretalkingtome@msn.com

Tuning: Standard (E A D G B E)

main riff here 100% right


E|-----------------------------------------------------------||
B|-----------------------------------------------------------||
G|-------9--9--9--9--------------8----8-------------8--------||
D|-------------9--9--------------------------7---------------||
A|---------------------------9-------------------9-----------||
E|----9--9--9--9--9------7------------7----------------------||



E|-------------------------------------------------------||
B|-----9-------------------------------------------------||
G|--------9--9--9--9-------------8----8--------------8---||
D|------------------------------------------7------------||
A|---------------------------9-------------------9-------||
E|--9-----9--9--9--9----7-------------7------------------||



Important: The song above is NOT stored on the Chordie server. The original song is hosted at www.xguitar.com. Chordie works as a search engine and provides on-the-fly formatting. Chordie does not index songs against artists/composers will. To remove this song please click here.

This song is displayed as text-only. Transposing and tuning is only available for chordpro-songs.

Login - add to songbook

Rating click stars to rate

Layout
Accuracy

SHARE PAGE  




You need to log in to post comments

guysurfa (report)

where's the whole song in chords n tabs please
don't call us ;azy bastards we just love hammin around on guitar via chordie and those who work out the tabs and timings are thankable but not godlike....


keep on jammin