Guitar Tabs, Chords and Lyrics


Take the Veil Cerpin Taxt    Mars Volta



The Mars Volta - Take The Veil Cerpin Taxt
Submitted By: El mezcalito
Album: De-Loused In The Comatorium
Transcribed by: Ulises Pedroza
Email: upedroza@yahoo.com.mx

¨Mi novia es una caliente¨                   -Gustavo

Tuning: EADGBE

Section 1
0:08 - 0:28
-----5-------------------------10---------5-------------10--------12----------
---------6---5h6-----5p0----------------------6---5-5/9----9-8-11------8------
---7---7---7-------7-------/13----13---/7---7---7--------------------6--------
-----------------0------------------------------------------------------------
------------------------------------------------------------------------------
------------------------------------------------------------------------------


-----5------------------------10---------5-------------10--------12-----------
---------6---5h6-----5p0---------------------6---5-5/9----9-8-11--------------
---7---7---7-------7------/13----13---/7---7---7------------------------------
-----------------0------------------------------------------------------------
------------------------------------------------------------------------------
------------------------------------------------------------------------------

Section 2
0:28 - 0:39
-0--0--0---0------------------------------------------------------------------
-6--5--6---9------------------------------------------------------------------
------------------------------------------------------------------------------
------------------------------------------------------------------------------
------------------------------------------------------------------------------
------------------------------------------------------------------------------

Section 3
1:01 - 1:21
---------5-5-5----------------------------------------------------------------
-6-6-5-6-6-5-5----5---5--5----10---10-10----5---5--5--------------------------
-7-7-7-7-7-7-7----5---5--5----10---10-10----5---5--5--------------------------
-0-0-0-0---0-0----0---0--0----x----x--x-----0---0--0--------------------------
------------------x---x--x----8----8--8-----x---x--x--------------------------
------------------6---6--6------------------6---6--6--------------------------


---------5-5-5----------------------------------------------------------------
-6-6-5-6-6-5-5----5---5--5----11-11-11-11-11-11-11-11----8-8-8--8-8-8---------
-7-7-7-7-7-7-7----5---5--5----9--9--9--9--9--9--9--9-----6-6-6--6-6-6---------
-0-0-0-0---0-0----0---0--0----x--x--x--x--x--x--x--x-----7-7-7--7-7-7---------
------------------x---x--x----10-10-10-10-10-10-10-10----x-x-x--x-x-x---------
------------------6---6--6-------------------------------5-5-5--5-5-5---------

Section 4
2:27 - 2:49
------------------------------------------------------------------------------
------------------------6-6-6-5-5-6--6--6--5-6-6-5----------------------------
-3---3---3----3---3-----7-7-7-5-5-7--7--7--5-7-7-5----------------------------
-x---0---x----0---x-----0-0-0-0-0-0--0--0--0-0-0-0----------------------------
-1b--x---3b---x---4-----------------------------------------------------------
-----3--------3---------------------------------------------------------------

Section 5
2:49 - 2:58
------------------------------------------------------------------------------
--------------------14\---------17\-------------------------------------------
-12\------14\-----------------------------------------------------------------
------------------------------------------------------------------------------
------------------------------------------------------------------------------
------------------------------------------------------------------------------

Section 6
3:40 - 4:37
------------------------------------------------------------------------------
--------------------------10------8------7------4-----------------------------
-----7-----10-----5-----9-------7------6------3-------------------------------
---6-----9------4-----8-------6------5------2---------------------------------
-5-----8------3---------------------------------------------------------------
------------------------------------------------------------------------------

Section 7
4:58 - 7:11
----------------------------------------10-12-13------------------------------
-------------------------------10-11-13---------------------------------------
-----------------------9-10-12------------------------------------------------
---------------8-10-12--------------------------------------------------------
-------8-10-12----------------------------------------------------------------
-10-12------------------------------------------------------------------------

Section 8
6:05 - 7:10
----------------------------------------13------------------------------------
-15---13-------------------------------------15---13--------------------------
-----------14------------------------------------------14---------------------
----------------15---11---12--------------------------------14-15---11--------
------------------------------------------------------------------------------
------------------------------------------------------------------------------

Section 9
7:43 - 7:50

-0--0-0--0-0-----0------------------------------------------------------------
-6--6-5--5-5h6p5-2------------------------------------------------------------
------------------------------------------------------------------------------
------------------------------------------------------------------------------
------------------------------------------------------------------------------
------------------------------------------------------------------------------

Section 10
7:50 - 8:09
------------------------------------------------------------------------------
------------------------------------------------------------------------------
-7--7h9p7-3--3h5p3-----------------------7--7h9p7-3--3h5p3----------9-10-9----
-0--0-----0--0-----5--5h7p5--------------0--0-----0--0-----5--5h7p5--------11-
-------------------0--0-----2-2-2-2-2-2--------------------0--0---------------
----------------------------0-0-0-0-0-0---------------------------------------

Section 11
8:09 - 8:42
-13--12----13--12-------------------------------------------------------------
-15--15----15--15----14---14-----10-----11-----5----5-------------------------
-x---x-----x---x-----x----x------x------x------x----x-------------------------
-12--12----12--12----11---11-----7------8------2----2-------------------------
------------------------------------------------------------------------------


Important: The song above is NOT stored on the Chordie server. The original song is hosted at www.xguitar.com. Chordie works as a search engine and provides on-the-fly formatting. Chordie does not index songs against artists'/composers' will. To remove this song please click here.

This song is displayed as text-only. Transposing and tuning is only available for chordpro-songs.

Login - add to songbook

Rating click stars to rate

Layout
Accuracy

SHARE PAGE  




You need to log in to post comments