""; ?> Unwell by Matchbox 20 - guitar chords, guitar tabs and lyrics - chordie

Unwell

Matchbox 20

            ----------------------------------

-----------------------------------
e|-------5-7-5------------------5-7-5---5----------7-5--|
B|-5-/7--5-7-5--7-5-----5-/7---5-7-5---5----------7-5--|
G|-4-/6---------6-4-----4-/6---------------------------|
D|--------------------------------------------0---------|
A|------------------------------------------------------|
E|------------------------------------------------------|
e|------------------5-7-5---------5---------------------------|
B|--7-5-----5-/7---5-7-5----7----5----7--------7----------5--|
G|--6-4-----4-/6-----------6--------6------6-6------6/4-----4|
D|------------------------------------------------------------|
A|------------------------------------------------------------|
E|------------------------------------------------------------|
e|------------------0-------|
B|-----1--1-h2---------0----|
G|--2--------------------1--|
D|--------------------------|
A|--------------------------|
E|--------------------------|
e|-------5-7-5------------------5-7-5---5----------7-5--|
B|-5-/7--5-7-5--7-5-----5-/7---5-7-5---5----------7-5--|
G|-4-/6---------6-4-----4-/6---------------------------|
D|--------------------------------------------0---------|
A|------------------------------------------------------|
E|------------------------------------------------------|
e|------------5------------------5---------------------------|
B|--7-5------5-----7-----5------5-----7------7---------5----|
G|--6-4----------6-----4------------6----6-6-----64-----4--|
D|-----------------------------------------------------------|
A|-----------------------------------------------------------|
E|-----------------------------------------------------------|
e|------------------0-------|
B|-----1--1-h2---------0----|
G|--2--------------------1--|
D|--------------------------|
A|--------------------------|
E|--------------------------|

 ADEF#mC#m
e|-0-------2-----0-----2-----4---|

B|-2-------3-----0-----2-----5---|
G|-2-------2-----1-----2-----6---|
D|-2-------0-----2-----4-----6---|
A|-0-------------2-----4-----4---|
E|---------------0-----1-----4---|

 DEAF#m
 All day staring at the ceiling
 DEF#m
Making friends with shadows on my wall
 DEAF#m
 All night hearing voices telling me
 D
That I should get some sleep
 E
 Because tomorrow might be good for something

 C#mD
 Hold on
 AEC#mD
 Feeling like I'm headed for a breakdown
 AE
 And I don't know why

(chorus)

 AD
 But I'm not crazy, I'm just a little unwell
 D
I know right now you can't tell
 F#mE
 But stay awhile and maybe then you'll see

A different side of me
 AD
 I'm not crazy, I'm just a little impaired
 D
I know right now you don't care
 F#mE
 But soon enough you're gonna think of me
 DE
And how I used to be...me

 AF#m
I'm talking to myself in public
 DEF#m
 Dodging glances on the train
 DEAF#m
 And I know, I know they've all been talking about me
 D
 I can hear them whisper
 EC#mD
And it makes me think there must be something wrong with me
 AE
 Out of all the hours thinking
 C#mDAE
 Somehow I've lost my mind

(chorus)

 AD
 But I'm not crazy, I'm just a little unwell
 D
I know right now you can't tell
 F#mE
 But stay awhile and maybe then you'll see

A different side of me
 AD
 I'm not crazy, I'm just a little impaired
 D
I know right now you don't care
 F#mE
 But soon enough you're gonna think of me
 D
And how I used to be


 F#mD
 I've been talking in my sleep
 F#mD
 Pretty soon they'll come to get me
 F#mE
 Yeah, they're taking me away

(chorus)

 AD
 But I'm not crazy, I'm just a little unwell
 D
I know right now you can't tell
 F#mE
 But stay awhile and maybe then you'll see

A different side of me
 AD
 I'm not crazy, I'm just a little impaired
 D
I know right now you don't care
 F#mE
 But soon enough you're gonna think of me
 D
And how I used to be

 AD
 Yeah, how I used to be
 F#mE
 How I used to be
 AD
 Well, I'm just a little unwell
 F#mE
 How I used to be
How I used to be
I'm just a little unwell

END WITH THIS CHORD:

 A
                                                              
e|---0---------------|

B|---2---------------|
G|---2---------------|
D|---2---------------|
A|---0---------------|
E|-------------------|

TRY THIS ALMOST PERFECT!

email me: janmichael_dimpas2004@yahoo.com


Corrected by ZMikezaldy. View original
A C#m D E F#m
variations - click chord images
Transpose chords:
Tuning:
Cool service:
View: Size:
A  A  A
Rating:
Layout:
  • Currently 3/5 Stars.
  • 1
  • 2
  • 3
  • 4
  • 5
 
Accuracy:
  • Currently 3.4/5 Stars.
  • 1
  • 2
  • 3
  • 4
  • 5
 
click stars to rate
Chordie recommends:
Check out JamPlay.com for online video guitar lessons
Songbook:
Login to add this song to your songbook
Support the artist
Preview/buy this song
MSN Music
Why this non-profit ad?

 
login to add comments/video/corrections