Guitar Tabs, Chords and Lyrics


Designer Behavior   Unknown




DESIGNER BEHAVIOUR
[MD45 - The Craving]
Transcribed by Mark Yeary

Five Magics - http://fivemagics.com/ - http://teethgrinder.com/fivemagics/
--------------------------------------------------------------------------
tune to Eb

      main riff:

D)--8--/--9---9---8--/--9---9---8--/--9---9---8--/--9---9-------------
A)--6--/--7---7---6--/--7---7---6--/--7---7---6--/--7---7----7-6-5-4--
E)--------------------------------------------------------------------

     play 3 times, then:

D)--8--/--9---9------------------
A)--6--/--7---7---7-7-6-5-4------
E)-------------------------------

D)--8--/--9---9------------------
A)--6--/--7---7---7-7-6-5-4------
E)-------------------------------

           chorus: (palm muted)

D)----------------------------------------------------------
A)---2-3-4---2---------2-3-4---2----------2--4--2-----------
E)------------------4-------------------4-----------------4-

         before solo:

G)--9---9------9---9------9---9--------
D)--9---9------9---9------9---9--------
A)--7---7------7---7------7---7--------
E)-------------------------------------

       during solo:

D)--8--/--9---9---8--/--9---9---8--/--9---9---8--/--9---9---8--/--9---
A)--6--/--7---7---6--/--7---7---6--/--7---7---6--/--7---7---6--/--7---
E)--------------------------------------------------------------------

      first time:           second time:        third time:

E)------------------------------------------
B)---8-------------10-----------------11----
G)---7--------------9-----------------10----
D)---5--------------7------------------9----
A)------------------------------------------
E)------------------------------------------

    then:

D)---8--/--9---9----------------
A)---6--/--7---7---7-7-6-5-4----
E)------------------------------

D)---8--/--9---9----------------
A)---6--/--7---7---7-7-6-5-4----
E)------------------------------


Important: The song above is NOT stored on the Chordie server. The original song is hosted at www.xguitar.com. Chordie works as a search engine and provides on-the-fly formatting. Chordie does not index songs against artists'/composers' will. To remove this song please click here.

This song is displayed as text-only. Transposing and tuning is only available for chordpro-songs.

Login - add to songbook

Rating click stars to rate

Layout
Accuracy

SHARE PAGE  




You need to log in to post comments