Chordie logo


Fight Hate   Unknown




FIGHT HATE
[MD45 - The Craving]
Transcribed by Michael James

Five Magics - http://fivemagics.com/ - http://teethgrinder.com/fivemagics/
--------------------------------------------------------------------------
"fight / somethins different / hate / somethins different..."
|---------------------------------------------
|---------------------------------------------
|---------------------------------------------
|---------------------------------------------
|-2-7/8-8-7-5-3-2-7/8-8-7-5-3-2-7/8-8-7-5-3-2-
|-0-5/6-6-5-3-1-0-5/6-6-5-3-1-0-5/6-6-5-3-1-0-

|--------------------------------------------------------------------
|--------------------------------------------------------------------
|--------------------------------------------------------------------
|-----5---7-5---7^-7---5-7-5-----------7p5-------------------7p5-----
|-5h7---7-----7------7---------5h7---------5h7-------5h7---------5h7-
|----------------------------0-----7p5---------0-0-0-----7p5---------

|----------------------------------------------------------------------------------
|----------------------------------------------------------------------------------
|----------------------------------------------------------------------------------
|-----5---7-5---7^-7---5-7-5-----5---7-5---7^-7---5-7-5-----5---7-5---7^-7---5-7-5-
|-5h7---7-----7------7-------5h7---7-----7------7-------5h7---7-----7------7-------
|----------------------------------------------------------------------------------

|-----------------------|
|-----------------------|
|-9---------------------|
|-9----8-7---5-7-5-3/---|
|-7--9-8-7---5-7-5-3/---|
|----7-6-5---3-5-3-1/---|

Solo:
|------------------------------------------------------------------
|------------------------------------------------------------------
|-----------7-7/9-7-------------------7-7/9-7----------------------
|-----6-7-9---------9-7-6-------6-7-9---------9-7-6----------------
|---7---------------------7---7---------------------7--------------
|-0-------------------------0--------------------------------------

|------------------------------------------------------------------
|------------------------------------------------------------------
|-------2-1---------2-1-------------7-7/9-7------------------------
|-----3-----3-----3-----3-----6-7-9---------9-7-6------------------
|---3-----------3-----------7---------------------7----------------
|-1-----------1-----------0----------------------------------------

|------------------------------------------------------------------
|------------------------------------------------------------------
|-9--------------9--------------9----------------------------------
|-9-9-8-7--------9-9-8-7--------9-9-8-7--------5-7-5-3-------------
|-7-9-8-7-xxxxxx-7-9-8-7-xxxxxx-7-9-8-7-xxxxxx-5-7-5-3-xxxxxx------
|---7-6-5-000000---7-6-5-000000---7-6-5-000000-3-5-3-1-000000------



Important: The song above is NOT stored on the Chordie server. The original song is hosted at www.xguitar.com. Chordie works as a search engine and provides on-the-fly formatting. Chordie does not index songs against artists/composers will. To remove this song please click here.

This song is displayed as text-only. Transposing and tuning is only available for chordpro-songs.

Login - add to songbook

Rating click stars to rate

Layout
Accuracy

SHARE PAGE  




You need to log in to post comments