Guitar Tabs, Chords and Lyrics


Hearts Will Bleed   Unknown




HEARTS WILL BLEED
[MD45 - The Craving]
Transcribed by Christopher Heer / Carl Hurst

Five Magics - http://fivemagics.com/ - http://teethgrinder.com/fivemagics/
--------------------------------------------------------------------------
1/2 step down tuning
         
Intro(Riff 1)
---------------------------------------------------------------------
---------------------------------------------------------------------
---------------------------------------------------------------------
---------------------------------------------------------------------
---------------------------------------------------------------------
-7-7-7-7-7-7-7-10-7-7-7-7-7-7-7-10-7-7-7-7-7-7-7-10-7-7-7-7-7-7-7-10-

--------------------------------------------------------------------
--------------------------------------------------------------------
--------------------------------------------------------------------
--------------------------------------------------------------------
--------------------------------------------------------------------
-7-7-7-7-7-7-7-10-7-7-7-7-7-7-7-10-7-7-7-7-7-7-7-10-7-7-7-7-7-0-6-7-

Verse(Riff 2)
---------------------------------------------------------
---------------------------------------------------------
---------------------------------------------------------
---------------------------------------------------------
-9-9-9-9-------9-9-9-9-------9-9-9-9-------9-9-9-9-------
-7-7-7-7-0-6-7-7-7-7-7-0-6-7-7-7-7-7-0-6-7-7-7-7-7-0-6-7-
Repeat RIFF 2

Chorus(Riff 3)
---------------------------------
---------------------------------
-------7-----7---9-----7-----7---
-2---5-7---5-7-5-9---5-7---5-7-5-
-2---5-5---5-5-5-7---5-5---5-5-5-
-0---3-----3---3-----3-----3---3-

Play RIFF 2:
Play RIFF 3:
Play RIFF 2:
Play RIFF 1:
Play RIFF 2:
Play RIFF 2:
Play RIFF 3:
Play RIFF 2:
Play RIFF 3:

These chords are played when Dave plays start of solo:
--------------------------------------------------------------------
--------------------------------------------------------------------
--------------------------------------------------------------------
--------------------------------------------------------------------
---9-------------------------------------9--------------------------
---7-------------------------------------7--------------------------

Solo Rhythm(Riff 4)
-----------------------------------------------------------------------
-----------------------------------------------------------------------
-----------------------------------------------------------------------
-----------------------------------------------------------------------
-9-9-9-9-------10-10-10-10-------11-11-11-11--------12-12-12-12--------
-7-7-7-7-0-6-7--8--8--8--8-0-7-8--9--9--9--9-0-8-9--10-10-10-10-0-9-10-

Play RIFF 4 a total of 4 times.

Solo Rhythm #2(Riff 5)
---------------------------------------------------------------------
---------------------------------------------------------------------
---------------------------------------------------------------------
---------------------------------------------------------------------
--9------------10------------11-------------12-----------------------
--7-------------8-------------9-------------10-----------------------

This is played with RIFF 5:

--7~------------8~------------9~------------10~-------------------
------------------------------------------------------------------
------------------------------------------------------------------
------------------------------------------------------------------
------------------------------------------------------------------
------------------------------------------------------------------

Play RIFF 2:
Play RIFF 5:
Play RIFF 2:
Play RIFF 5:
Play RIFF 2:
Play RIFF 5:
Play RIFF 2:
Play RIFF 3:
Play RIFF 3:

Play RIFF2 THREE TIMES:

THEN FINISH WITH THIS:

-------------------------------------------------------
-------------------------------------------------------
-------------------------------------------------------
-------------------------------------------------------
-9-9-9-9-------9-9-9-9-------9-9-9-9-7-7-7-7-7-5-4-2---
-7-7-7-7-0-6-7-7-7-7-7-0-6-7-7-7-7-7-5-5-5-5-5-3-2-0---

-----------------------------------------
-----------------------------------------
-----------------------------------------
-7---------9--999999999999999999---------
-5-9-------7--777777777777777777----9\---
---7--------------------------------7\---


Important: The song above is NOT stored on the Chordie server. The original song is hosted at www.xguitar.com. Chordie works as a search engine and provides on-the-fly formatting. Chordie does not index songs against artists'/composers' will. To remove this song please click here.

This song is displayed as text-only. Transposing and tuning is only available for chordpro-songs.

Login - add to songbook

Rating click stars to rate

Layout
Accuracy

SHARE PAGE  




You need to log in to post comments