Guitar Tabs, Chords and Lyrics


My Town   Unknown




MY TOWN
[MD45 - The Craving]
Transcribed by Michael James

Five Magics - http://fivemagics.com/ - http://teethgrinder.com/fivemagics/
--------------------------------------------------------------------------
|----------------------------------------------
|----------------------------------------------
|----------------------------------------------
|-2-----5-----7-----8-----2-----5-----7-----8--
|-2-----5-----7-----8-----2-----5-----7-----8--
|-0-----3-----5-----6-----0-----3-----5-----6--

|-------------------------------------------------------------
|-------------------------------------------------------------
|-------------------------------------------------------------
|-------------------------------------------------------------
|-7/8--8-8---5---7/8--8-8---5---7/8--8-8---5---7/8--8-8---5---
|-5/6--6-6-0-3-0-5/6--6-6-0-3-0-5/6--6-6-0-3-0-5/6--6-6-0-3-0-

"tonight we stole the keys to the city..."
|---------------------------------------------
|---------------------------------------------
|---------------------------------------------
|-2-----5-----7-----8-----2-----5-----7-----8-
|-2-----5-----7-----8-----2-----5-----7-----8-
|-0-----3-----5-----6-----0-----3-----5-----6-

                                        1 2 3:
|--------------------------------------|----------------------------
|--------------------------------------|----------------------------
|--------------------------------------|----------------------------
|----------5----------5----------5-----|---------------------5------
|------7p5---5h7--7p5---5h7--7p5---5h7-|-7p5--5p4---5h7--7p5--------
|---0----------------------------------|----------0-----------------

4:
|-----------------------------------
|-----------------------------------
|-----------------------------------
|-----------------------------------
|-7p5-5p4---5p4-4p3-3p2-2p1-0-------
|---------0-------------------3-2-0-


Important: The song above is NOT stored on the Chordie server. The original song is hosted at www.xguitar.com. Chordie works as a search engine and provides on-the-fly formatting. Chordie does not index songs against artists'/composers' will. To remove this song please click here.

This song is displayed as text-only. Transposing and tuning is only available for chordpro-songs.

Login - add to songbook

Rating click stars to rate

Layout
Accuracy

SHARE PAGE  




You need to log in to post comments