Guitar Tabs, Chords and Lyrics


No Pain   Unknown




NO PAIN
[MD45 - The Craving]
Transcribed by Carl Hurst/Christopher Heer

Five Magics - http://fivemagics.com/ - http://teethgrinder.com/fivemagics/
--------------------------------------------------------------------------
1/2 step down tuning

RIFF 1:

G)--------------------------------------
D)--7H8P7-5-7-----8---7H8P7-5-7-8-------
A)------------5---6-------------6---8---
E)------------3---------------------6---

RIFF 1a.

G)---------------------------------------
D)--7H8P7-5-7-----8---7H8P7-5-7----------
A)------------5---6----------------------
E)------------3-------------------3~-----
RIFF 2:

G)-------------------
D)--99-88-66-55-4-3--
A)--77-66-44-33-2-1--
E)-------------------

Play RIFF 1 Five and a half times...Then play RIFF 2.
RIFF 3:

G)-------------------------------
D)--7--8-7--10--8--7--8-7--------
A)--7--8-7--10--8--7--8-7--------
E)--5--6-5---8--6--5--6-5--3--6--
RIFF 3a:

E)--------------------------12-12-12-12-12-12-------
B)--------------------------12-12-12-12-12-12-------
G)--------------------------12-12-12-12-12-12-------         
D)--7--8-7--10--8--7--8-7---------------------------
A)--7--8-7--10--8--7--8-7---------------------------
E)--5--6-5---8--6--5--6-5---------------------------

Play RIFF 3 Four times....Then play RIFF 3a Four times.

Play RIFF 1 Three and a half times...Then play RIFF 2.

Play RIFF 3 Four times....Then play RIFF 3a Four times.

Play RIFF 1 Three times then play RIFF 1a.

Play RIFF 4:
RIFF 4:

G)------------------------------------------------------------------
D)------------------------------------------------------------------
A)--------7-8-7--------5-6-5--------3-4-3--------1-2-1--------------
E)--0-7-8--------0-5-6-------0-3-4--------0-1-2---------------------
G)---------------------------------------------------------------------
D)-----------------------------------------------------------------9---
A)--0-2-1--7-8-7-------7-6-5---5-4---4-3---3-2----2----------------7---
E)---------------0-5-6-------4-----3-----2--------0----------------0---
RIFF 5:
G)-------------------------------------------------------------------------------------------
D)--7H8P7-5-7-----8---7H8P7-5-7-8---------7H8P7-5-7------8-----------------------------------
A)------------5---6-------------6---8----------------5---6---7--8--9-10----------------------
E)------------3---------------------6----------------3-------5--6--7--8----------------------

Play RIFF 5 Three times.

Play RIFF 1 One and a half times...Then play RIFF 2.

Play RIFF 3 Four times....Then play RIFF 3a Four times.

Play RIFF 1 Three and a half times...
Finish with :

G)----------------------
D)--99-88-66-55-4-3--2--
A)--77-66-44-33-2-1--0--
E)----------------------


Important: The song above is NOT stored on the Chordie server. The original song is hosted at www.xguitar.com. Chordie works as a search engine and provides on-the-fly formatting. Chordie does not index songs against artists'/composers' will. To remove this song please click here.

This song is displayed as text-only. Transposing and tuning is only available for chordpro-songs.

Login - add to songbook

Rating click stars to rate

Layout
Accuracy

SHARE PAGE  




You need to log in to post comments