Chordie logo

Nothing Is Something   Unknown




NOTHING IS SOMETHING
[MD45 - The Craving]
Transcribed by Mark Yeary

Five Magics - http://fivemagics.com/ - http://teethgrinder.com/fivemagics/
--------------------------------------------------------------------------
tune to Eb

   intro:

D)---9-----5---4---2-------------------
A)---7-----3---2---0------5---4--------
E)---0--------------------3---2--------

    verse:

G)-------------------------------2-p-0----------------------------------
D)----------0-h-2----5-p-2-----------------2-1-0------------------------
A)-------------------------------------------------------2-1-0----------
E)--0--0----------------------------------------------------------3-0---

       then:

D)----------------------------------------------------------------------
A)----------------------------------------------------------------------
E)---0-0-0---3-p-0---5-p-0---7---0-0-0---3-p-0---5-p-0---7--------------

D)---5---4---2-------------------
A)---3---2---0------5----4-------
E)------------------3----2-------

    then:

G)--7--7--7--7--7--7--7--7--7------
D)--7--7--7--7--7--7--7--7--7------
A)--5--5--5--5--5--5--5--5--5------
E)---------------------------------

  chorus:

D)--12---9-9-9-9-9-9-----12---9-9-9-9-9-9------
A)--10---7-7-7-7-7-7-----10---7-7-7-7-7-7------
E)---------------------------------------------

D)---5---4---2-----------------
A)---3---2---0-------5---4-----
E)-------------------3---2-----

    after 2nd verse and chorus:

G)---10-------10--------
D)---10-------10--------
A)----8--------8--------
E)----------------------

     during solo:

D)--9--9--9------------------------------------------
A)--7--7--7-----5--5--5----7--7--7-----2--2--2-------
E)--------------3--3--3----5--5--5-----0--0--0-------

D)--9--9--9---------------------------------------
A)--7--7--7------5--5--5----7--7--7-----8---9-----
E)---------------3--3--3----5--5--5-----6---7-----

    after solo:

G)---10-------------------------------
D)---10-------------------------------       repeat
A)----8-------------------------------

E)------------0--0--0--0--0--0--0-----
That's all of Nothing is Something.  I'm working on some of the other MD.45
tracks.  If anyone knows how to play any of the other songs, let me know.
Especially "Roadman"!


Important: The song above is NOT stored on the Chordie server. The original song is hosted at www.xguitar.com. Chordie works as a search engine and provides on-the-fly formatting. Chordie does not index songs against artists/composers will. To remove this song please click here.

This song is displayed as text-only. Transposing and tuning is only available for chordpro-songs.

Login - add to songbook

Rating click stars to rate

Layout
Accuracy

SHARE PAGE  

You need to log in to post comments