Guitar Tabs, Chords and Lyrics


Roadman   Unknown




ROADMAN
[MD45 - The Craving]
Transcribed by Mark Yeary - 07/21/98

Five Magics - http://fivemagics.com/ - http://teethgrinder.com/fivemagics/
--------------------------------------------------------------------------

tune down to Eb

intro:  (increase alternate picking on the root)

D)--2--2--2-2--       D)----------------
A)--0--0--0-0-- etc.  A)--0-0-0-0-0-0--- etc.
E)-------------       E)----------------
D)-------------2---4-p-2-----5-p-2---5-5-5-5-4-3-2---
A)--2-h-3-h-4-------------0--------0-----------------
E)---------------------------------------------------

D)--/-5----3----
A)--/-3----1----
E)--------------
verse:

D)--2-----2----------
A)--0--0--0--0-0-0---
E)-------------------

"and when the party's over"

D)---------------------------------------------------
A)--4-----4---------4-----4---------3-----3----------
E)--2--2--2--2-2-2--2--2--2--2-2-2--1--1--1--1-1-1---

D)---------------------------------------------------
A)--3-----3---------4-----4---------4-----4----------
E)--1--1--1--1-1-1--2--2--2--2-2-2--2--2--2--2-2-2---

D)--------------------------------------
A)--3-----3---------2-----2-------------
E)--1--1--1--1-1-1--0--0--0--0-0-0------
that's about it.

Mark Yeary
JCPose@aol.com


Important: The song above is NOT stored on the Chordie server. The original song is hosted at www.xguitar.com. Chordie works as a search engine and provides on-the-fly formatting. Chordie does not index songs against artists'/composers' will. To remove this song please click here.

This song is displayed as text-only. Transposing and tuning is only available for chordpro-songs.

Login - add to songbook

Rating click stars to rate

Layout
Accuracy

SHARE PAGE  




You need to log in to post comments