Guitar Tabs, Chords and Lyrics


The Creed   Unknown




CREED
[MD45 - The Craving]
Transcribed by Mark Yeary

Five Magics - http://fivemagics.com/ - http://teethgrinder.com/fivemagics/
--------------------------------------------------------------------------
tune to Eb
        
              intro:  (with muting)

G)--7---7---7------9-------7---7---7------9-------
D)--7---7---7------9-------7---7---7------9-------
A)--5---5---5------7-------5---5---5------7-------
E)--5---5---5------7-------5---5---5------7-------

G)--7--7--7-----5----5--/--7-----7--7--7-----9-------
D)--7--7--7-----5----5--/--7-----7--7--7-----9-------
A)--5--5--5-----3----3--/--5-----5--5--5-----7-------
E)--5--5--5-----3----3--/--5-----5--5--5-----7-------

    repeat, then (with the harmonica)

G)------7----------9----------7----------9-------
D)--7---5----7-----9------7---5----7-----9-------
A)--5---5----5-----7------5---5----5-----7-------
E)--5--------5-----7------5--------5-----7-------

G)------7---------5----5--/--7----------7--------9-----
D)--7---5---7-----5----5--/--7-----7---5----7----9-----
A)--5---5---5-----3----3--/--5-----5---5----5----7-----
E)--5-------5-----3----3--/--5-----5--------5----7-----

     repeat.   the last time:

G)---9----7----5----4-------
D)---9----7----5----4-------
A)---7----5----3----2-------
E)---7----5----3----2-------

     then:

D)--2--2--0--2---2--0--2--2--2--0--2---2--0------
A)--2--2--0--2---2--0--2--2--2--0--2---2--0------   etc.
E)------------------------------------------------------

    then play:

D)-------------------------------------
A)---5-5-5---3-2-0----5-5-5---3-2-0----
E)-------------------------------------

     verse:

D)--2-2-0-2---2-0--2-2-2---0-2--2-0-2---2-0-2---2-0----
A)--2-2-0-2---2-0--2-2-2---0-2--2-0-2---2-0-2---2-0----
E)-----------------------------------------------------

G)--2-h-3--2---0-----------
D)--2-h-3--2---0----3------
A)---------------------3------
E)----------------------------

G)---5--5--5---5----5--5---4-------------------
D)---5--5--5---5----5--5---4---------3---0----
A)---3--3--3---3----3--3---2----0----3---0----
E)---3--3--3---3----3--3---2----0--------------

D)--2--2--0--2----2--0-----
A)--2--2--0--2----2--0-----
E)----------------------------

G)--2-h-3---2---0----------
D)--2-h-3---2---0-----3----
A)--------------------3----
E)-------------------------

       then:

D)----------------------------------------
A)---5-5-5---3-2-0-----5-5-5----3-2-0-----
E)----------------------------------------

    chorus:

D)--9-------7----9--------7---------------------------
A)--7---9---5----7----9---5----8---7---5---2-----9----
E)------7-------------7----_---6---5---3---0-----7----
      after the 2nd chorus:

      lead:

D)--7-p-5------------------------5-h-7-p-5----------------------
A)------------7--7-p-5--------------------------7-p-5-----------
E)--------------------------7--------------------------------7--

    rhythm:

G)-------------5----4--------
D)--2----5----5----4--------
A)--2----5----3----2--------
E)--0----3-------------------
That's basically the song.  The rest of it includes rhythms that I've
already tabbed.


Important: The song above is NOT stored on the Chordie server. The original song is hosted at www.xguitar.com. Chordie works as a search engine and provides on-the-fly formatting. Chordie does not index songs against artists'/composers' will. To remove this song please click here.

This song is displayed as text-only. Transposing and tuning is only available for chordpro-songs.

Login - add to songbook

Rating click stars to rate

Layout
Accuracy

SHARE PAGE  




You need to log in to post comments