Guitar Tabs, Chords and Lyrics


Voices   Unknown




VOICES
[MD45 - The Craving]
Transcribed by Mark Yeary

Five Magics - http://fivemagics.com/ - http://teethgrinder.com/fivemagics/
--------------------------------------------------------------------------
tune to Eb

   intro:

D)--9----------9------------9-------------9--------------------
A)--7----------7------------7-------------7-----7---7---7---7--
E)------0--0-------0-0-0-------0-0-0----------0---0---0---0----

     then:

G)---9-----9--9------9--9--9--9------9---9-----
D)---9-----9--9------9--9--9--9------9---9-----
A)---7-----7--7------7--7--7--7------7---7-----
E)---------------------------------------------

     verse:

D)--------------------------------------------------------------
A)--5-h-7-------9-------5-h-7--------8--------5-h-7-------------
E)-----------x---7---0-------------x---6---0--------------4--3--

   then:  (palm muted)

D)----------------------------------------------------
A)-----------2-2-2-------------5-5-5------------------
E)--0-0-0------------3-3-3-------------5-5----0-0-----

D)-----------------------------------------------------
A)--3-3-3------------2-2-2-----------------------------
E)-----------3-3-3------------2-2-2-----5-5----3-3-----

   chorus  ("I hear them")

D)-------------------------------------------------------------
A)--5-h-7--------9-------5-h-7-------8-------5-h-7-------------
E)------------x---7---0------------x---6---0-------------4--3--

    ending:

D)-----------------------2-----
A)---5-h-7---------------2-----
E)--------------4---3----0-----


Important: The song above is NOT stored on the Chordie server. The original song is hosted at www.xguitar.com. Chordie works as a search engine and provides on-the-fly formatting. Chordie does not index songs against artists'/composers' will. To remove this song please click here.

This song is displayed as text-only. Transposing and tuning is only available for chordpro-songs.

Login - add to songbook

Rating click stars to rate

Layout
Accuracy

SHARE PAGE  




You need to log in to post comments