Chordie logo

Over the Rainbow    Me First and The Gimme Gimmes



Over The Rainbow
Me First And The Gimme Gimmies
Tabbed By Chris

Bass Intro Followed by
e|--------------------|
B|--------------------|
G|--------------------|
D|-5------------------|
A|-5 pick scrape------|
E|-3------------------|

Chorus
e|---------------------------------------------------------------------|
B|---------------------------------------------------------------------|
G|----------------------------------------------55555555---------------|
D|-55555555--99999999-1010101010101010-55555555-55555555-55555555------|
A|-55555555--99999999-1010101010101010-55555555-33333333-55555555------|
E|-33333333--77777777--8 8 8 8 8 8 8 8-33333333----------33333333------|

e|---------------------------------------------------------------------|
B|---------------------------------------------------------------------|
G|-99999999------7777--------------------------------------------------|
D|-99999999-7777-7777-5555---------------------------------------------|
A|-77777777-7777-5555-5555---------------------------------------------|
E|----------5555------3333---------------------------------------------|

Verse
e|---------------------------------------------------------------------|
B|---------------------------------------------------------------------|
G|----------------------------77777777----------77777777----------7777-|
D|-55555555-77777777-55555555-77777777-55555555-77777777-77777777-7777-|
A|-55555555-77777777-55555555-55555555-55555555-55555555-77777777-5555-|
E|-33333333-55555555-33333333----------33333333----------55555555------|
pm  .......  .......  .......           .......  .......  .......

Solo
e|---------------------------------------------------------------------|
B|-0-3--0-3--0-3-0--3-1-3--1-3-1-3-/8-7----7-8-10-10b(12)-8------------|
G|--------------------------------------7------------------------------|
D|---------------------------------------------------------------------|
A|---------------------------------------------------------------------|
E|---------------------------------------------------------------------|

Outro
e|--------------------------------------3------------------------------|
B|------------------------------------3--------------------------------|
G|--------------------------7-------4----------------------------------|
D|-55555555-77777777-10-9-7-7-----5------------------------------------|
A|-55555555-77777777-10-9-7-5------------------------------------------|


Important: The song above is NOT stored on the Chordie server. The original song is hosted at www.xguitar.com. Chordie works as a search engine and provides on-the-fly formatting. Chordie does not index songs against artists/composers will. To remove this song please click here.

This song is displayed as text-only. Transposing and tuning is only available for chordpro-songs.

Login - add to songbook

Rating click stars to rate

Layout
Accuracy

SHARE PAGE  

You need to log in to post comments