Guitar Tabs, Chords and Lyrics


Rainbow Connection   Me First and The Gimme Gimmes

E |------------------------------------------||


B |------------------------------------------||


G |---7---------------------7----------------||

D |---7----------5----------7----------5-----||
A |---5----------5----------5----------5-----||
E |--------------3---------------------3-----||
E |----------------------------------------------------------------||
B |----------------------------------------------------------------||
G |------7-5-7-5-----/12-12---7-5-7-5-----/12-12-------------------||
D |------7-5-7-5-5---/12-12---7-5-7-5-5---/12-12-------------------||
A |--------------5--------------------5----------------------------||
E |----------------------------------------------------------------||
E |----------------------------------------------------------------||
B |----------------------------------------------------------------||
G |--7-------9-------7---------------7-------9-------7-------------||
D |--7---9---9---7---7---9---5---7---7---9---9---7---7---9---5---5-||
A |--5---9---7---7---5---9---5---7---5---9---7---7---5---9---5---5-||
E |------7-------5-------7---3---5-------7-------5-------7---3---3-||
E |-----------------------------------||
B |-----------------------------------||
G |-----------------------------------||
D |--5------5------4------4-----------||
A |--5------5------4------4-------<<<-||
E |--3------3------2------2-------<<<-||
E |-----3------3------2------2--------||
B |------3------3------2------2-------||
G |-------4------4------3-------------||
D |----5------5------4----------------||
A |---5------5------4-------------<<<-||
E |--3------3------2--------------<<<-||
E |--------------------------||
B |--------------------------|| * Here Guitar 1 plays this chord
G |------2----*--4-----------|| instead of the F#:
D |--2---2---4---4---5---7---||
A |--2---0---4---2---5---7---|| A |--1
E |--0-------2-------3---5---|| E |--2
E |-------------------||
B |-------------------||
G |-------------------||
D |---7---5---7---5---||
A |---5---5---5---5---||
E |-------------------||
E |--5---5---7---5---3---7---5--------||
B |--7---5---7---7---3---7---5--------||
G |--7---6---8---7---4---7---6--------||
D |--7---7---9---7---5---7---7--------||
A |--5---7---9---5---5---5---7--------||
E |------5---7-------3-------5---6----||
E |--10--5---7---10--3---7---5---6----||
B |--10--5---7---10--3---7---5---6----||
G |--11--6---7---11--4---7---6---7----||
D |--12--7---9---12--5---7---7---6----||
A |--12--7---9---12--5---5---7---8----||
E |--10--5---7---10--3-------5---6----||
E |----------------------------------------------------------------||
B |----------------------------------------------------------------||
G |--8-------10------8---------------8-------10------8-------------||
D |--8---10--10--8---8---10--6---8---8---10--10--8---8---10--6---6-||
A |--6---10--8---8---6---10--6---8---6---10--8---8---6---10--6---6-||
E |------8-------6-------8---4---6-------8-------6-------8---4---4-||
E |-----------------------------------||
B |-----------------------------------||
G |-----------------------------------||
D |---6------6------5------5----------||
A |---6------6------5------5------<<<-||
E |---4------4------3------3------<<<-||
E |------4------4------3----3---------||
B |-------4------4------3-------------||
G |--------5------5------4------------||
D |-----6------6------5---------------||
A |----6------6------5------------<<<-||
E |---4------4------3-------------<<<-||
E |----------------------------||
B |----------------------------||
G |-------3-------5------------||
D |---3---3---5---5---6---8----||
A |---3---1---5---3---6---8----||
E |---1-------3-------4---6----||
E |-----------------------------------||
B |-----------------------------------||
G |---8-----------8-----------8-------||
D |---8---8---10--8---6---8---8-let---||
A |---6---8---10--6---6---8---6-ring--||
E |-------6---8-------4---6-----------||
[C]Why are there so man[Am]y songs [F]about rainbo[G]ws?
[C]What's on the ot[Am]her si[F-G]de?
[C]Rainbows are[Am] visions but [F]only [G]illusions
[C]And rainbows got [Am]nothing to hid[F-G]e
[Am]So we've been told and some choose to believe it
[G]I know they're wrong wait and see
[F]Someday we'll [G]find that th[E]e rainbow co[Am]nnection
[F]The lover's the[G] dreamers and[C-Am-C-Am] me
Verse 2: (Same as verse 1 chords)

They said that every wish would be heard and answered
When wished on the morning star
Somebody thought of that and someone believe it
But look what it's done so far
What so amazing that keeps us stargazing?
What do we think we might see?
Someday we'll find that the rainbow connection
The lovers the dreamers and me

Refrain:
[G]All of us [C]under its [G]spell
we [F]know that it's [C]probably [G-G#]magic...


Verse 3: (Same as verse 1 and 2)


Have you been half asleep and have you heard voices
I hear them calling my name
Is this the sweet sound that calls the young sailors?
Could it be one at the same?
I heard it too many times to ignore it
Something that I'm supposed to be
Someday we'll find that the rainbow connection
The lovers the dreamers and me
La lalala lalala lalalalalalala laaaaaaa! Yeah.

Thanks friends... If you enjoyed the tab please rate it. This is for all punk rockers
here in Baguio City!

Important: The song above is NOT stored on the Chordie server. The original song is hosted at www.xguitar.com. Chordie works as a search engine and provides on-the-fly formatting. Chordie does not index songs against artists'/composers' will. To remove this song please click here.

Text color:
Chord color:
Chord grids: 
Font size:    
Page size: 

Am C E F G
variations - click chord images

Login - add to songbook

Transpose chords

Tuning

Rating click stars to rate

Layout
Accuracy

SHARE PAGE  




You need to log in to post comments