eToCache5 = ""; ?> Sweet Caroline by Me First and The Gimme Gimmes - guitar chords, guitar tabs and lyrics - chordie
 Intro
  play A underneath
E-|---------------------------|------------------------|
B-|---------------------------|------------------------|
G-|---------------------------|------------------------|
D-|---------------------------|-5-7-9--5-7-9-7-5-9-7-5-|
A-|-7-9-10--7-9-10-9-7-10-9-7-|------------------------|
E-|---------------------------|------------------------|
E-|---------------------------|
B-|---------------------------|
G-|---------------------11--9-|
D-|-9-11-12--9-11-12-11-------|
A-|---------------------------|
E-|---------------------------|


 Verse
 DGii
   Where it began   I can't begin to knowin'
D A w/Riff A
But then I know it's growing strong
 DGii
   Was in the spring,  and spring became the summer
 DA
   Who'd have believed that you'd come along

 Pre-Cborus
  w/Riff B
 AG
 Hands     Touchin' hands
F G A w/Riff C
Reachin' out Touchin' me, touchin' you

 Cborus
 DAGiiF#ii
 Sweet Caroline     
 BC#DEii
    The time never seemed so good    
 DAGiiF#ii
 I've been inclined     
 BA
   To believe they never would But now I

 Verse
Look at the night, and it don't seem so lonely
We fill it up with only two
And when I hurt hurtin' runs off my shoulders
How can I hurt when I'm alone with you

 Pre-Cborus
Warm Touchin' warm
Reachin' out Touchin' me, touchin' you

Repeat Chorus
Oh, no, yeay!

Repeat Intro

Repeat Chorus twice

 Outro
 A#BC
Riff A
E-|------------------|
B-|------------------|
G-|------------------|
D-|------------------|
A-|------------------|
E-|-0-5-7-5--0-5-7-5-|


Riff B
E-|--------------------|
B-|-10--12--14--15--17-|
G-|--------------------|
D-|--7---9--11--12--14-|
A-|--------------------|
E-|--------------------|


Riff C
E-|----------|
B-|----------|
G-|----------|
D-|-7--9--11-|
A-|----------|
E-|-5--7---9-|



A A# B C C# D G
variations - click chord images
Transpose chords:
Tuning:
Cool service:
View: Size:
A  A  A
Rating:
Layout:
  • Currently 0/5 Stars.
  • 1
  • 2
  • 3
  • 4
  • 5
 
Accuracy:
  • Currently 0/5 Stars.
  • 1
  • 2
  • 3
  • 4
  • 5
 
click stars to rate
Chordie recommends:
Get acoustic guitar lessons and electric guitar lessons at JamPlay.com
Songbook:
Login to add this song to your songbook
Support the artist
Preview/buy this song
MSN Music
Why this non-profit ad?

 
login to add comments/video/corrections