Guitar Tabs, Chords and Lyrics


I Believe I Can Fly   Me First and The Gimme Gimmes

e|--8-8-8-8-8-8--------7-7-7-7-7-7--------|


B|--8-8-8-8-8-8-(etc)--8-8-8-8-8-8-(etc)--| as many times as needed


B|--9-9-9-9-9-9--------9-9-9-9-9-9--------|

D|----------------------------------------|
A|----------------------------------------|
E|----------------------------------------|
e|----------------------------------------------------------------------------|
B|----------------------------------------------------------------------------|
G|--5555555555555555-----------------------7777777777777777-------------------|
D|--5555555555555555-777777777777777777777-7777777777777777-5555555555555555--|
A|--3333333333333333-777777777777777777777-5555555555555555-5555555555555555--|x1
E|-------------------555555555555555555555------------------3333333333333333--|
e|-----------------------------------------------------------------------|
B|-----------------------------------------------------------------------|
G|-----------------------------------------------------------------------|
D|--7777777777777777-6666666666666666-5555555555555555-6666666666666666--|
A|--7777777777777777-6666666666666666-5555555555555555-6666666666666666--|x1
E|--5555555555555555-4444444444444444-3333333333333333-4444444444444444--|
e|--------------------|
B|--------------------|
G|--------------------|
D|--7~--7~--7~--7--6--|
A|--7~--7~--7~--7--6--|x1
E|--5~--5~--5~--5--4--|
e|--3~-----5~--|
B|--5~-----7~--|
G|--5~-----7~--|
D|--5~-----7~--|
A|--3~-----5~--|x4
E|--3~-----5~--|
e|--------------------------------------------------------------------|
B|--------------------------------------------------------------------|
G|-----------------------------------------5~---5-5-5-5-5-5-----------|
D|--7~---7-7-7-7-7---6~----6-6-6-6-6-6-6---5~---5-5-5-5-5-5---3~---3--|
A|--7~---7-7-7-7-7---6~----6-6-6-6-6-6-6---3~---3-3-3-3-3-3---3~---3--|x1
E|--5~---5-5-5-5-5---4~----4-4-4-4-4-4-4----------------------1~---1--|
e|-------------------------------------------------------------------------|
B|-------------------------------------------------------------------------|
G|-------------------7777777777777777--5555555555555555--------------------|
D|-7777777777777777--7777777777777777--5555555555555555--5555555555555555--|
A|-7777777777777777--5555555555555555--3333333333333333--5555555555555555--|x1
E|-5555555555555555--------------------------------------3333333333333333--|
e|-----------------------------------------------------------------|
B|-----------------------------------------------------------------|
G|--------------------------------------6~----6--6--6--6-----------|
D|--8~---8--8--8--8---7~---7--7--7--7---6~----6--6--6--6---4~---4--|
A|--8~---8--8--8--8---7~---7--7--7--7---4~----4--4--4--4---4~---4--|x1
E|--6~---6--6--6--6---5~---5--5--5--5----------------------2~---2--|
e|-----------------------------------------------------------------------|
B|-----------------------------------------------------------------------|
G|--6666666666666666-----------------8888888888888888--------------------|
D|--6666666666666666--8888888888888--8888888888888888--6666666666666666--|
A|--4444444444444444--8888888888888--6666666666666666--6666666666666666--|x1
E|--------------------6666666666666--------------------4444444444444444--|
e|-------------------------------------------------------------------------|
B|-------------------------------------------------------------------------|
G|-------------------------------------------------------------------------|
D|-8888888888888888--7777777777777777--6666666666666666--7777777777777777--|
A|-8888888888888888--7777777777777777--6666666666666666--7777777777777777--|x1
E|-6666666666666666--5555555555555555--4444444444444444--5555555555555555--|
e|------------------------------------------------------------------|
B|------------------------------------------------------------------|
G|--------------------------------------8888888888888888--6-----6/--|
D|--8888888888888888--6666666666666666--8888888888888888--6-----6/--|
A|--8888888888888888--6666666666666666--6666666666666666--4~----4/--|
E|--6666666666666666--4444444444444444------------------------------|
E-------------------3----5-------------------------
B-------------------3----5-------------------------
G--5-----7----------5----7----------6-------8------
D--5--7--7--5--6----5----7---3--8---6---4---8---6--
A--3--7--5--5--6----3----5---3--8---4---4---6---6--
E-----5-----3--4----3----5---1--6-------2-------4--
   [C]   [A]   [D]   [G]   [G#]    [C/G]     [D/A]     [F]   [Bb]    [C#] [F#] [D#] [G#] 
Intro/1st Verse
E--8-8-8888-8-8-8888--8-8-8888-8-8-8888-
B--8-8-8888-8-8-8888--9-9-9999-9-9-9999-
G--9-9-9999-9-9-9999--7-7-7777-7-7-7777-  repeat 8 times, letting last note ring
D---------------------------------------
A---------------------------------------
E---------------------------------------



I used to think
that I could not go on
And life was nothing but an awful song
But now I know the meaning of true love
I'm leaning on the everlasting arms

If I can see it, then I can do it
If I just believe it, there's nothing to it

I believe I can [C]fly

I believe I can to[A]uch the sky
I think about it every [D]night and day
Spread my wings and [G]fly away
G – G# - A
I believe I can soar

I see me running through that [G#]open door

I believe I can [C]fly
I believe I can [D]fly
I believe I can [A]fly [A]    [A]   [A]  [-]  [G#]
Woo!

[C/G]See I was on the verge of breaking [D/A]down

[C/G]Sometimes the silence can seem so [D/A]loud
[C/G]There are miracles in life I must ac[D/A]hieve
[C/G]But first I know it starts inside of[D/A] me
If I can [A]see it, then I can [G#]be it
If I can be[C]lieve it, there's nothing [F]to it
I believe I can [C]fly
I believe I can [A]touch the sky
I think about it every [D]night and day
Spread my wings and [G]fly away
G – G# - A
I believe I can soar

I see me running through that [G#]open door

I believe I can [C]fly
I believe I can f[D]ly
I believe I can [A]fly    [D]
Cause I believe in [C]you        [G]
[G]If[-]  [G#]I  [-] c[A]an[-]  [Bb]see it, then I can [A]do it
If I can bel[C#]ieve it, there's nothing [F#]to it
I believe I can [C#]fly
I believe I can [Bb]touch the sky
I think about it every [D#]night and day
Spread my wings and [G#]fly away
I believe [G#]I  [-] c[A]an[-]  [Bb]soar
I see me running through that [A]open door
I believe I can [C#]fly
I believe I can f[D#]ly
I believe I can [Bb]fly
I believe I can f[A]ly
[F#]Oh - oh – oh
[C#]Yeah      [C#]
That's is, methinks! go nuts!

Gerner

Important: The song above is NOT stored on the Chordie server. The original song is hosted at www.xguitar.com. Chordie works as a search engine and provides on-the-fly formatting. Chordie does not index songs against artists/composers will. To remove this song please click here.

Text color:
Chord color:
Chord grids: 
Font size:    
Page size: 

A Bb C C# C/G D D# F F# G G#
variations - click chord images

Login - add to songbook

Transpose chords

Tuning

Rating click stars to rate

Layout
Accuracy

SHARE PAGE  




You need to log in to post comments