Guitar Tabs, Chords and Lyrics


Seven   Megadeth



Seven

Megadeth - Risk

Transcribed by the people at The Megadeth Sanctuary
http://personal.netwrx.net/kweber/index.html
kweber@netwrx.net
E---12\--|-----------------
B---12\--|-----------------
G---12\--|-----------------
D--------|-----------0-----
A--------|---5-4-h-5-------
E--------|-0---------------
E-------------------|-----------------|--------------------
B-------------------|-----------------|--------------------
G-------7----5------|------9---7------|------4-------------
D---7-X-7----5--5---|--9-X-9---7--7---|--------7-4---------
A---7-X-5----3--5---|--9-X-7---5--7---|--5-6-------6-------
E---5-X---------3---|--7-X--------5---|--------------------
chorus
E--------------------------------------------------------
B--------------------------------------------------------
G--------------------------------------------------------
D--------------------------------------------------------
A--2-4-5-7-5-2---9-7-5-7-2---12-9-7-9-7-5---2-4-5-7-2----
E--0-2-3-5-3-0---7-5-3-5-0---10-7-5-7-5-3---0-2-3-5-0----


during solo
E-----------------------------
B-----------------------------
G-----------------------------
D-----------------------------
A--4-6-5-9-7-4---4-6-5-9-4----
E--2-4-3-7-5-2---2-4-3-7-2----

E----------------------------------
B----------------------------------
G----------------------------------
D---9\--9\--9\--9\--9\--9\--9------
A---9\--9\--9\--9\--9\--9\--9------
E---7\--7\--7\--7\--7\--7\--7------

during double time
lead part
E---------------------------------------------------------
B---------------------------------------------------------
G---------------------------------------------------------
D------4-5-7-5--------4-5-7-5-----4-5-7-5-------4-5-7-----
A---/7---------7---/7----------/7---------7--/7-------7---
E---------------------------------------------------------
rhythm part
E-------------------------
B-------------------------
G---9---7-----------------
D---9---7---7---5---2-----
A---7---5---7---5---2-----
E-----------5---3---0-----

E--------------|---------------------------
B--------------|---------------------------
G---7----------|---7-----------------------
D---7---7---2--|---7---7---5---7---5---7---
A---5---7---2--|---5---7---5---7---5---7---
E-------5---0--|-------5---3---5---3---5---



Important: The song above is NOT stored on the Chordie server. The original song is hosted at www.xguitar.com. Chordie works as a search engine and provides on-the-fly formatting. Chordie does not index songs against artists/composers will. To remove this song please click here.

This song is displayed as text-only. Transposing and tuning is only available for chordpro-songs.

Login - add to songbook

Rating click stars to rate

Layout
Accuracy

SHARE PAGE  




You need to log in to post comments