"yes"; ?> Mary Jane by Megadeth - guitar chords, guitar tabs and lyrics - chordie

Mary Jane

Megadeth

G|-------15-13------h---------------|----13-11----------------------------|

D|-13----------15-15^16----16-15-13-|-11-------14-13-14-11-13----11-13----|

A|----------------------------------|-------------------------15-------14-|

E|----------------------------------|-------------------------------------|

G|----------------------------------|-------------------------------------|

D|-13~~-----------------------------|-11~~--------------------------------|

A|----------------------------------|-------------------------------------|

E|----------------------------------|-------------------------------------|

G|----------------------------------|-------------------------------------|

D|----------------------------------|-------------------------------------|

A|-13-------------------------------|-11----------------------------------|

E|-11-------------------------------|--9----------------------------------|

 12341234
G|------11-9------h--------------|---9-7-----------------------|
D|-9---------11-11^12----12-11-9-|-7-----10-9-10-7-9----7-9----|
A|-------------------------------|-------------------11-----10-|
E|-------------------------------|-----------------------------|

| 1 2 & & 3 & (&) 4 & & 1 & & 2 & & 3 & & 4 & & |
| |
G|-------------------------------|-----------------------------|
D|-9~~---------------------------|-7~~-------------------------|
A|-------------------------------|-----------------------------|
E|-------------------------------|-----------------------------|

| 1 (2) (3) (4) 1 (2) (3) (4) |
| |
G|-------------------------------|-----------------------------|
D|-------------------------------|-----------------------------|
A|-9-----------------------------|-7---------------------------|
E|-7-----------------------------|-5---------------------------|

 12341234
G|-------7-5----h----------|-----------|
D|-5---------7-7^8---8-7-5-|-----------|
A|-------------------------|-3---------|
E|-------------------------|-1---------|

| 1 2 & & 3 &(&)4 & & |
| |
G|-------------------------|-----------|
D|-5~~---------------------|-3---------|
A|-------------------------|-----------|
E|-------------------------|-----------|

| 1 (2) (3) (4) |
| |
G|-------------------------|-----------|
D|-------------------------|-----------|
A|-5-----------------------|-3---------|
E|-3-----------------------|-1---------|

 1234
                       solo
 b1b1
E|---------------h--|sl--------p-p-sl-------10-|-----------13---------------|
B|--------------6^8-|\10-----10^8^6 \5----8----|-8-------11--11-------15----|
G|-9^------9^-------|--------------------------|-------------------------12-|
D|------------------|--------------------------|----------------------------|
A|------------------|--------------------------|----------------------------|
E|------------------|--------------------------|----------------------------|

r r r r r r
1(2)(&) 3(4) & + 1 (2) & + + 3 (4)& & 1 & & 2 & & 3 & & 4 & &
E|-17----15-------------------------|
B|----------18-17-15----------------|
G|-------------------17-15-14-------|
D|----------------------------17-15-|
A|----------------------------------|
E|----------------------------------|

1 2 & & 3 & & 4 & &
clean
E|-------------------------|-------------------------|-------------------------|
B|-------6-----------6-----|-------6-----------5-----|-------6-----------5-----|
G|-----7---7-------7---7---|-----7---7-------7---7---|-----7---7-------7---7---|
D|---7-------7---7-------7-|---7-------7---7-------7-|---7-------7---7-------7-|
A|-5-----------5-----------|-5-----------5-----------|-5-----------5-----------|
E|-------------------------|-------------------------|-------------------------|

| 1 & & 2 & & 3 & & 4 & & 1 & & 2 & & 3 & & 4 & & 1 & & 2 & & 3 & & 4 & & |
| |
| distortion |
G|-------------------------|-------------------------|-------------------------|
D|-12----------------------|(12)---------11----------|-12----------11----------|
A|-------------------------|-------------------------|-------------------------|
E|-10----------------------|(10)----------9----------|-10-----------9----------|

 123412341234
E|-------------------------|-------------------------|-------------------------|
B|-------6-----------6-----|-------6-----------5-----|-------5-----------5-----|
G|-----7---7-------7---7---|-----7---7-------7---7---|-----7---7-------7---7---|
D|---7-------7---7-------7-|---7-------7---7-------7-|---7-------7---7-------7-|
A|-5-----------5-----------|-5-----------5-----------|-5-----------5-----------|
E|-------------------------|-------------------------|-------------------------|

| 1 & & 2 & & 3 & & 4 & & 1 & & 2 & & 3 & & 4 & & 1 & & 2 & & 3 & & 4 & & |
| |
G|-------------------------|-------------------------|-------------------------|
D|-12----------10----------|-9-----------5-----------|-------------------------|
A|-------------------------|-------------------------|-10----------9-----------|
E|-10-----------8----------|-7-----------3-----------|--8----8-8-8-7-----7-7-7-|

===== =====
1 (2) 3 (4) 1 (2) 3 (4) 1 2 & & 3 4 & &
E|-------------------------|-------------------------|-------------------------|
B|-------5-----------5-----|-------6-----------6-----|-------6-----------5-----|
G|-----7---7-------7---7---|-----7---7-------7---7---|-----7---7-------7---7---|
D|---5-------5---5-------5-|---7-------7---7-------7-|---7-------7---7-------7-|
A|-5-----------5-----------|-5-----------5-----------|-5-----------5-----------|
E|-------------------------|-------------------------|-------------------------|

| 1 & & 2 & & 3 & & 4 & & 1 & & 2 & & 3 & & 4 & & 1 & & 2 & & 3 & & 4 & & |
| |
G|-------------------------|-------------------------|-------------------------|
D|-------------------------|-------------------------|-------------------------|
A|-10----------11----------|-12-----------10---------|-9-----------5-----------|
E|--8----8-8-8--9----9-9-9-|-10--10-10-10--8---8-8-8-|-7-----7-7-7-3-----3-3-3-|

===== ===== ======== ===== ===== =====
1 2 & & 3 4 & & 1 2 & & 3 4 & & 1 2 & & 3 4 & &
E|-------------------------|-------------------------|
B|-------5-----------5-----|-------5-----6---8---6---|
G|-----7---7-------7---7---|-----7---7---------------|
D|---7-------7---7-------7-|---5-------5---5---5---5-|
A|-5-----------5-----------|-5-----------------------|
E|-------------------------|-------------------------|

| 1 & & 2 & & 3 & & 4 & & 1 & & 2 & & 3 & & 4 & & |
| |
G|-------------------------|-------------------------|
D|-------------------------|-------------------------|
A|-10----------9-----------|-8-----------------------|
E|--8----8-8-8-7-----7-7-7-|-6-----6-6-6-3-2-1-0-3-2-|

===== ===== =================
1 2 & & 3 4 & & 1 2 & & 3 & & 4 & &
solo
E||---7-----------7-----------|--8--------------8-------------|
B||o----5-----------5---------|----5--------------5-----------|
G||-------4-----------4-------|------5--------------5---------|
D||---------------------------|-------------------------------|
A||o--------------------------|-------------------------------|
E||---------------------------|-------------------------------|

| 1 & & (2) 3 & & (4) 1 & & (2) 3 & & (4) |
| riff 1 |
G||---------------------------|-------------------------------|
D||o--9-------9-9-9-------9-9-|-------------------------------|
A||o--7-7-7-7-7-7-7-7-7-7-7-7-|-10-------10-10-10-------10-10-|
E||---------------------------|--8-8-8-8--8--8--8-8-8-8--8--8-|

===== ===== ===== =====
1 & & 2 & & 3 & & 4 & & 1 & & 2 & & 3 & & 4 & &
pb 1 pb 1
E|-9-----------9-----------|-15^(15)12-----------------------------|
B|---5-----------5---------|-----------15^(15)12-------------------|
G|-----6-----------6-------|---------------------15-14-12----------|
D|-------------------------|------------------------------14-12----|
A|-------------------------|------------------------------------14-|
E|-------------------------|---------------------------------------|

| 1 & & (2) 3 & & (4) 1 & & 2 & & 3 & & 4 & & |
| |
G|-------------------------|---------------------------------------|
D|-------------------------|---------------------------------------|
A|-7-------7-7-7-------7-7-|-8-------------8--8--8-----7-----5-----|
E|-5-5-5-5-5-5-5-5-5-5-5-5-|-6---6--6--6---6--6--6-----5-----3-----|

===== ===== =======
1 & & 2 & & 3 & & 4 & & 1 & & 2 & & 3 (&) & (4) & (&)
2x
E|----------------------------||
B|---------------------------o||
G|----------------------------||
D|----------------------------||
A|---------------------------o||
E|----------------------------||

| |
| end riff 1 2x|
G|----------------------------||
D|-9------------5------------o||
A|-7-77-7-5-7-----7-7-5-7-9--o||
E|------------7-----------7---||

========== =======
1 &+ & 2 & & 3 & & 4 & &
play riff 1 two times
n.h====== n.h===== n.h====== n.h=====
E||--------------------------------|-------------------------------------|
B||o--------12---------------12----|----------12-------------------12----|
G||----sl------12-----sl---7----12-|-------------12--------------7----12-|
D||---8/9-9-------12-8/9-9---------|--9/10-10-------12--9/10-10----------|
A||o-------------------------------|-------------------------------------|
E||--------------------------------|-------------------------------------|

| 1 & & 2 & & 3 & & 4 & & 1 & & 2 & & 3 & & 4 & & |
| |
G||--------------------------------|-------------------------------------|
D||o-------------------------------|-------------------------------------|
A||o--9---------9--9-9--------9--9-|-10----------10-10-10----------10-10-|
E||---7-7-7--7--7--7-7-7-7-7--7--7-|--8--8--8--8--8--8--8--8--8--8--8--8-|

====== ===== ======= =======
1 & & 2 & & 3 & & 4 & & 1 & & 2 & & 3 & & 4 & &
n.h====== n.h===== n.h================= 3x
E|------------------------------------|----------------------------------||
B|----------12------------------12----|----------12------------7--------o||
G|---sl--------12-----sl------7----12-|--------------7-12--5-------7-----||
D|-10/11-11-------12-10/11-11---------|-11/12-12-------------7-----------||
A|------------------------------------|---------------------------------o||
E|------------------------------------|----------------------------------||

| 1 & & 2 & & 3 & & 4 & & 1 & & 2 & & 3 & &(4)&(&) |
| 3x|
G|------------------------------------|----------------------------------||
D|------------------------------------|-----------------------------sl--o||
A|-11----------11-11-11---------11-11-|-12----------12-12-12--11---9\7--o||
E|--9--9--9--9--9--9--9--9--9-9--9--9-|-10-10-10-10-10-10-10---9---7\5---||

======= ====== ========
1 & & 2 & & 3 & & 4 & & 1 & & 2 & & 3(&)&(4)& &
n.h====== n.h===== n.h====== n.h=====
E|------------------------------|-------------------------------------|
B|-------12---------------12----|----------12-------------------12----|
G|--sl------12-----sl---7----12-|-------------12--------------7----12-|
D|-8/9-9-------12-8/9-9---------|--9/10-10-------12--9/10-10----------|
A|------------------------------|-------------------------------------|
E|------------------------------|-------------------------------------|

| 1 & & 2 & & 3 & & 4 & & 1 & & 2 & & 3 & & 4 & & |
| |
G|------------------------------|-------------------------------------|
D|------------------------------|-------------------------------------|
A|-9---------9--9-9--------9--9-|-10----------10-10-10----------10-10-|
E|-7-7-7--7--7--7-7-7-7-7--7--7-|--8--8--8--8--8--8--8--8--8--8--8--8-|

====== ===== ======= =======
1 & & 2 & & 3 & & 4 & & 1 & & 2 & & 3 & & 4 & &
n.h====== n.h=====
E|------------------------------------|-------------------------|
B|----------12------------------12----|-------------------------|
G|---sl--------12-----sl------7----12-|-------------------------|
D|-10/11-11-------12-10/11-11---------|-------------------------|
A|------------------------------------|-12---7------------------|
E|------------------------------------|-10-0-5------------------|

| = |
| 1 & & 2 & & 3 & & 4 & & 1 & & (2) (3) (4) |
| |
G|------------------------------------|-------------------------|
D|------------------------------------|-------------------------|
A|-11----------11-11-11---------11-11-|-12---7------------------|
E|--9--9--9--9--9--9--9--9--9-9--9--9-|-10-0-5------------------|

======= ====== =
1 & & 2 & & 3 & & 4 & & 1 & & (2) (3) (4)
play straight eights
& faster
riff 2 end riff 2 2x
G||---------------------|----------------sl----||
D||o----------------sl--|--------------12\10--o||
A||o--7-7-56-7-7-7-8/10-|-7-7-56-7-7-7-10\-8--o||
E||----------------6/-8-|----------------------||

====== === ====== ===
1 & 2+ & 3 & 4 & 1 & 2+ & 3 & 4 &
riff 3 <-1st,2nd ending - -
G||------sl-----------|-------------------|----sl-----------|
D||o--9-7/8-9------sl-|-------------------|-9-7/8-9------sl-|
A||o--7-5/6-7---5-5/8-|---7-7-------------|-7-5/6-7---5-5/8-|
E||-------------3-3/6-|---5-5---6535-33---|-----------3-3/6-|

r r ====== r
1 & 2 & 3 & 4 & 1 & 2 3+&+ 4+(&) 1 & 2 & 3 & 4 &
  - - - - - - - - - - ->  <-3rd ending - - - - - - -
G|----------------------||---7---8--------|-------------------|
D|---------------------o||---5---6-----9--|-----9-------------|
A|---7-7-*-------------o||-------------7--|-8-7-7---*---------|
E|---5-5-33-3-11-1-00---||-0---------0----|-6-5---0-33-3-11-1-|

r ============ = r r = === ===========
1 & 2 &+ 3 &+ 4 &+ 1 & 2 & 3 & 4 1 & 2 & 3+ & 4+ &
*:Git 2, +1 octave
play riff 2 6x
play riff 3 with 1st ending & riff 3 with next ending:
G|------------------|-------------------|
D|---55-5-66-6---9--|-----9-------------|
A|---------------7--|-8-7-7---*---------|
E|-0-----------0----|-6-5---0-33-3-11-1-|

============= === ===========
1 &+ 2 &+ 3 & 4 1 & 2 & 3+ & 4+ &
*:git 2, 1 octave higher
faster
                      <-1st,2nd,3rd ending- -><-4rd ending- - - ->
G||-------------------|----------------------||------------------|
D||o------9-----9-----|-------------tr------o||------------------|
A||o------7---------9-|---10---9---9~(10)---o||---10---9---------|
E||---0-0-----0---0---|-0----0---0-----------||-0----0-----------|

=== = = = = = = =
1 & 2 3 & 4 & 1 & 2 & 3 & (4) 1 & 2 & (3) (4)
8x
G||------------------|-----------------|-----------------|------------------||
D||o-9-----7-----9---|-9-----7-----9---|10-----2-----5---|-5-----5-----7---o||
A||o-7-----5-----7---|-7-----5-----7---|-8-----0-----3---|-3-----3-----5---o||
E||----0-0---0-0---0-|---0-0---0-0---0-|---0-0---0-0---0-|---0-0---0-0---0--||

=== === = === === = === === = === === =
1 & 2 & 3 & 4 & 1 & 2 & 3 & 4 & 1 & 2 & 3 & 4 & 1 & 2 & 3 & 4 &
4x
G||----------------|---------------------|---------------|--------------------||
D||o-----9----9----|----------------tr---|----10---10----|-------------tr----o||
A||o-----7--------9|(9)-10---9--10-9~(10)|-----8--------9|(9)-10--12--9~(10)-o||
E||--0-0----0------|---------------------|-0-0----0------|--------------------||

=== = === =
1 & 2 3 &(4)& (1) &(2)&(3)& 4 1 & 2 3 &(4)& (1) &(2)&(3)& (4)
4x
G||-----------------|-------------|---------------|----------------------||
D||o--2----------1--|-2--4--5--7--|-9------9------|---------------------o||
A||o--2----------1--|-2--4--5--7--|-9------9------|---------9---8---7---o||
E||---0--0-0-0-0----|-0--2--3--5--|-7--7-7-7--7-7-|-7-7-7-7-7---6---5----||

======= === =======================
1 2 & 3 & 4 1 2 3 4 1 2 & 3 4 & 1 & 2 & 3(&)&(4)&(&)
2x
G||----------------|-------------|-------------|---------------------||
D||o--2---------1--|-2--4--5--7--|-9-----9-----|(9)-----------------o||
A||o--2---------1--|-2--4--5--7--|-9-----9-----|(9)-----9---8---7---o||
E||---0------------|-0--2--3--5--|-7-----7-----|(7)-----7---6---5----||

=========
1 (2) (3) 4 1 2 3 4 1 (2) 3 (4) 1 (2) 3(&)&(4)&(&)
G|------------|
D|-2----------|
A|-2----------|
E|-0----------|

r r r
 1234

variations - click chord images
Transpose chords:
Tuning:
Cool service:
View: Size:
A  A  A
Rating:
Layout:
  • Currently 0/5 Stars.
  • 1
  • 2
  • 3
  • 4
  • 5
 
Accuracy:
  • Currently 4/5 Stars.
  • 1
  • 2
  • 3
  • 4
  • 5
 
click stars to rate
Chordie recommends:
Learn to play songs at Jamplay.com with video guitar lessons
Songbook:
Login to add this song to your songbook
Support the artist
Preview/buy this song
MSN Music
Why this non-profit ad?

 
login to add comments/video/corrections