Guitar Tabs, Chords and Lyrics


The Final Word    Metal Church



tuned down half a step

Intro

  Gtr I
  PM------------------------------------------------------------------|
|-----------------|-----------------|-----------------|------------------|
|-----------------|-----------------|-----------------|------------------|
|-----------------|-----------------|-----------------|------------------|
|-----------------|-----------------|-----------------|------------------|
|-2-2-2-2-2-2-2-2-|-2-2-2-2-2-2-2-2-|-2-2-2-2-2-2-2-2-|-2-2-2-2-2-2-2-2--|
|-0-0-0-0-0-0-0-0-|-0-0-0-0-0-0-0-0-|-0-0-0-0-0-0-0-0-|-0-0-0-0-0-0-0-0--|


  PM------------------------------------------------------------------|
|-----------------|-----------------|-----------------|-----------------|
|-----------------|-----------------|-----------------|-----------------|
|-----------------|-----------------|-----------------|-----------------|
|-----------------|-----------------|-----------------|-----------------|
|-2-2-2-2-2-2-2-2-|-2-2-2-2-2-2-2-2-|-2-2-2-2-2-2-2-2-|-2-2-2-2-2-2-2-2-|
|-0-0-0-0-0-0-0-0-|-0-0-0-0-0-0-0-0-|-0-0-0-0-0-0-0-0-|-0-0-0-0-0-0-0-0-|


    PM|   PM    PM|     PM|               PM|   PM    PM|     PM----------|
                                                                              3x
||------------------|-------------------|-----------------|-------------------||
||o-----------------|-------------------|-----------------|------------------o||
||------------------|-------------------|-----------------|-------------------||
||------9---9-9-----|-5-----7-(7)-10--9-|-----9---9-9-----|-9-----------------||
||o-----7---7-7-----|-7-----7-(7)--7--7-|-----7---7-7-----|-7----------------o||
||--0-0---0-----0-0-|---0-0-------------|-0-0---0-----0-0-|---0-0-0-0-0-0-0---||


  PM|   PM    PM|     PM|               PM|   PM    PM|     PM--------|
|-----------------|-------------------|-----------------|------------------|
|-----------------|-------------------|-----------------|------------------|
|-----------------|-------------------|-----------------|------------------|
|-----9---9-9-----|-5-----7-(7)-10--9-|-----9---9-9-----|-9----------------|
|-----7---7-7-----|-7-----7-(7)--7--7-|-----7---7-7-----|-7----------------|
|-0-0---0-----0-0-|---0-0-------------|-0-0---0-----0-0-|---0-0-0-0-0-17\--|


    PM|   PM    PM|     PM|               PM|   PM    PM|     PM----------|
||------------------|-------------------|-----------------|-------------------||
||o-----------------|-------------------|-----------------|------------------o||
||------------------|-------------------|-----------------|-------------------||
||------9---9-9-----|-5-----7-(7)-10--9-|-----9---9-9-----|-9-----------------||
||o-----7---7-7-----|-7-----7-(7)--7--7-|-----7---7-7-----|-7----------------o||
||--0-0---0-----0-0-|---0-0-------------|-0-0---0-----0-0-|---0-0-0-0-0-0-0---||


   Verse
    Gtrs I, II
    PM|   PM    PM|     PM|               PM|   PM    PM|     PM----------|
||------------------|-------------------|-----------------|------------------|
||o-----------------|-------------------|-----------------|------------------|
||------------------|-------------------|-----------------|------------------|
||------9---9-9-----|-5-----7-(7)-10--9-|-----9---9-9-----|-9----------------|
||o-----7---7-7-----|-7-----7-(7)--7--7-|-----7---7-7-----|-7----------------|
||--0-0---0-----0-0-|---0-0-------------|-0-0---0-----0-0-|---0-0-0-0-0-0-0--|


  PM|    PM      PM|      PM|
|--------------------|-------------------|
|--------------------|-------------------|
|--------------------|-------------------|
|-----10---10-10-----|-10-----10-10--10--|
|-----10---10-10-----|--9------9--9--10--|
|-8-8----8-------8-8-|----8-8------------|


  PM|    PM      PM|      PM----------|
|--------------------|------------------|
|--------------------|------------------|
|--------------------|------------------|
|-----10---10-10-----|-10---------------|
|-----10---10-10-----|-10---------------|
|-8-8----8-------8-8-|----8-8-8-8-8-8-8-|


  PM|   PM    PM|     PM|               PM|   PM    PM|     PM----------|
|-----------------|-------------------|-----------------|-----------------|
|-----------------|-------------------|-----------------|-----------------|
|-----------------|-------------------|-----------------|-----------------|
|-----9---9-9-----|-5-----7-(7)-10--9-|-----9---9-9-----|-9---------------|
|-----7---7-7-----|-7-----7-(7)--7--7-|-----7---7-7-----|-7---------------|
|-0-0---0-----0-0-|---0-0-------------|-0-0---0-----0-0-|---0-0-0-0-0-0-0-|


  PM|    PM      PM|      PM|
|--------------------|-------------------|
|--------------------|-------------------|
|--------------------|-------------------|
|-----10---10-10-----|-10-----10-10--10--|
|-----10---10-10-----|--9------9--9--10--|
|-8-8----8-------8-8-|----8-8------------|


  PM|    PM      PM|      PM----------|
|--------------------|------------------|
|--------------------|------------------|
|--------------------|------------------|
|-----10---10-10-----|-10---------------|
|-----10---10-10-----|-10---------------|
|-8-8----8-------8-8-|----8-8-8-8-8-8-8-|


  1.
  Gtr I
|----------|------------|------------|--------|
|----------|------------|------------|--------|
|-2--------|-(2)--------|-(2)--------|-(2)----|
|-2--------|-(2)--------|-(2)--------|-(2)----|
|-0--------|-(0)--------|-(0)--------|-(0)----|
|----------|------------|------------|--------|
|
| Gtr II
|----------|------------|--5---------|-(5)----|
|----------|------------|--5---------|-(5)----|
|----------|------------|--2---------|-(2)----|
|----------|------------|------------|--------|
|----------|------------|------------|--------|
|----------|------------|------------|--------|


|-----------------|---------------------|-------------------|
|-----------------|---------------------|-------------------|
|-----------------|---------------------|-------------------|
|-2---------------|-(2)-----------------|-(2)---------------|
|-2---------------|-(2)-----------------|-(2)---------------|
|-0---------------|-(0)-----------------|-(0)---------------|
|
| PM|   PM    PM|       PM|                PM-|   PM    PM|
|-----------------|---------------------|-------------------|
|-----------------|---------------------|-------------------|
|-----------------|---------------------|-------------------|
|-----9---9-9-----|--5------7-(7)-10--9-|-------9---9-9-----|
|-----7---7-7-----|--7------7-(7)--7--7-|-------7---7-7-----|
|-0-0---0-----0-0-|-----0-0-------------|--0--0---0-----0-0-|


|-------------------|-------------------|-----------------------|
|-------------------|-------------------|-----------------------|
|-------------------|-------------------|-----------------------|
|-(2)---------------|-(2)---------------|-(2)-------------------|
|-(2)---------------|-(2)---------------|-(2)-------------------|
|-(0)---------------|-(0)---------------|-(0)/------------------|
|
|     PM------------------|   PM    PM|        PM|
|-------------------|-------------------|-----------------------|
|-------------------|-------------------|-----------------------|
|-------------------|-------------------|-----------------------|
|--9----------------|-------9---9-9-----|--5-------7-(7)-10--9--|
|--7----------------|-------7---7-7-----|--7-------7-(7)--7--7--|
|-----0-0-0-0-0-0-0-|--0--0---0-----0-0-|------0-0--------------|


  ~~~~~~~~~~~~~~~~~~~~
|-----------------|--------------------||
|-----------------|-------------------o||
|-----------------|--------------------||
|-----------------|--------------------||
|-----------------|-------------------o||
|-6---------------|-4------------------||
|
| PM|   PM    PM|     PM|
|-----------------|--------------------||
|-----------------|-------------------o||
|-----------------|--------------------||
|-----9---9-9-----|-5-----7-(7)-10--9--||
|-----7---7-7-----|-7-----7-(7)--7--7-o||
|-0-0---0-----0-0-|---0-0--------------||


  2.
|----------|---------------------|------------|---------------|
|----------|---------------------|------------|---------------|
|-2--------|-2----(2)--(2)-------|------------|---------------|
|-2--------|-2----(2)--(2)-----4-|-(4)--------|-4---4-(4)-----|
|-0--------|-0----(0)--(0)-0-1-2-|-(2)--------|-3---2-(2)-----|
|----------|---------------------|------------|------------3--|


  Gtr I
|-------------------------------------|
|-------------------------------------|
|--2----------------------------------|
|--2----------------------------------|
|--0----------------------------------|
|-------------------------------------|
|
| Gtr II
|-------------------------------------|
|-------------------------------------|
|-------------------------------------|
|-------------------------------------|
|-12-11-10----10-11-12-11-10----10-11-|
|----------12----------------12-------|


|----------------------------------------|--------------------------------------|
|----------------------------------------|--------------------------------------|
|-(2)--------------------------2---------|--------------------------------------|
|-(2)--------------------------2----4----|-(4)----------------------------------|
|-(0)--------------------------0----2----|-(2)----------------------------------|
|----------------------------------------|--------------------------------------|
|
|----------------------------------------|--------------------------------------|
|----------------------------------------|--------------------------------------|
|----------------------------------------|--------------------------------------|
|----------------------------------------|--------------------------------------|
|-12--11-10----10-11-12-11-10----10---11-|-14--13-11----11-12-14-13-11----11-13-|
|-----------12----------------12---------|-----------14----------------14-------|


                                         Chorus
                                          $
|---------------------------------------|------------------|-------------------|
|---------------------------------------|------------------|-------------------|
|---------------------------------------|------------------|-------------------|
|-(4)-----------------4\----------------|------------------|-------------------|
|-(2)-----------------2-----------------|--5-----6-----7---|------8-----9---9--|
|---------------------------------------|--3p0-0-4p0-0-5p0-|---0--6p0-0-7---7--|
|
|---------------------------------------|-12---------------|-(12)----------12--|
|---------------------------------------|------------------|-------------------|
|---------------------------------------|--9---------------|--(9)-----------9--|
|---------------------------------------|------------------|-------------------|
|-14--13-11----11-12-14--13-11----11-13-|------------------|-------------------|
|-----------14-----------------14-------|------------------|-------------------|


|------------------|-------------------|
|------------------|-------------------|
|------------------|-------------------|
|--7h9-9-7h9-9-7h9-|---9--7h9-9-7h9-9--|
|--7---7-7---7-7---|---7--7---7-7---7--|
|------------------|-------------------|
|
|-12---------------|-(12)--------------|
|------------------|-------------------|
|--9---------------|--(9)--------------|
|------------------|-------------------|
|------------------|-------------------|
|------------------|-------------------|


|------------------|---------------------|
|------------------|---------------------|
|------------------|---------------------|
|------------------|---------------------|
|------------------|---------------------|
|--8-8-8-8-8-8-8-8-|---8--8-8-8-8-8--8-8-|
|
|------------------|---------------------|
|-13---------------|-(13)-----------13---|
|------------------|---------------------|
|-10---------------|-(10)-----------10---|
|------------------|---------------------|
|------------------|---------------------|


|------------------|------------------|------------------|-------------------|
|------------------|------------------|------------------|-------------------|
|------------------|------------------|------------------|-------------------|
|------------------|------------------|------------------|-------------------|
|--5-----6-----7---|------8-----9--9--|--5-----6-----7---|------8-----9---9--|
|--3p0-0-4p0-0-5p0-|---0--6p0-0-7--7--|--3p0-0-4p0-0-5p0-|---0--6p0-0-7---7--|
|
|-12---------------|-(12)-------------|-12---------------|-(12)----------12--|
|------------------|------------------|------------------|-------------------|
|--9---------------|--(9)-------------|--9---------------|--(9)-----------9--|
|------------------|------------------|------------------|-------------------|
|------------------|------------------|------------------|-------------------|
|------------------|------------------|------------------|-------------------|


|------------------|-------------------|------------------|--------------------|
|------------------|-------------------|------------------|--------------------|
|------------------|-------------------|------------------|--------------------|
|--7h9-9-7h9-9-7h9-|---9--7h9-9-7h9-9--|------------------|--------------------|
|--7---7-7---7-7---|---7--7---7-7---7--|------------------|--------------------|
|------------------|-------------------|--8-8-8-8-8-8-8-8-|---8--8-8-8-8-8-8-8-|
|
|-15---------------|-(15)--------------|------------------|--------------------|
|------------------|-------------------|-13---------------|-(13)---------------|
|-12---------------|-(12)--------------|------------------|--------------------|
|------------------|-------------------|-10---------------|-(10)---------------|
|------------------|-------------------|------------------|--------------------|
|------------------|-------------------|------------------|--------------------|


                          To Coda
|----------------|----------------|-----------------|---------------------|
|----------------|----------------|-----------------|---------------------|
|--2---2-(2)--2--|--(2)-2---2--2--|-2---------------|-(2)-----------------|
|--2---2-(2)--2--|--(2)-2---2--2--|-2---------------|-(2)-----------------|
|--0---0-(0)--0--|--(0)-0---0--0--|-0---------------|-(0)-----------------|
|----------------|----------------|-----------------|---------------------|
|
|                                   PM|   PM    PM|       PM|
|-15-------------|-(15)-----------|-----------------|---------------------|
|----------------|----------------|-----------------|---------------------|
|-12-------------|-(12)-----------|-----------------|---------------------|
|----------------|----------------|-----9---9-9-----|--5------7-(7)-10--9-|
|----------------|----------------|-----7---7-7-----|--7------7-(7)--7--7-|
|----------------|----------------|-0-0---0-----0-0-|-----0-0-------------|


|-------------------|-------------------|
|-------------------|-------------------|
|-(2)---------------|-(2)---------------|
|-(2)---------------|-(2)---------------|
|-(0)---------------|-(0)---------------|
|-------------------|-------------------|
|
|  PM-|   PM    PM|       PM-------------
|-------------------|-------------------|
|-------------------|-------------------|
|-------------------|-------------------|
|-------9---9-9-----|--9----------------|
|-------7---7-7-----|--7----------------|
|--0--0---0-----0-0-|-----0-0-0-0-0-0-0-|


|-------------------|---------------------|
|-------------------|---------------------|
|-(2)---------------|-(2)-----------------|
|-(2)---------------|-(2)-----------------|
|-(0)---------------|-(0)-----------------|
|-------------------|---------------------|
|
|-----|   PM    PM|       PM|
|-------------------|---------------------|
|-------------------|---------------------|
|-------------------|---------------------|
|-------9---9-9-----|--5------7-(7)-10--9-|
|-------7---7-7-----|--7------7-(7)--7--7-|
|--0--0---0-----0-0-|-----0-0-------------|


|-----------------|-----------------|
|-----------------|-----------------|
|-----------------|-----------------|
|-----------------|-----------------|
|-----------------|-----------------|
|-----------------|-----------------|
|
| PM|   PM    PM|     PM----------|
|-----------------|-----------------|
|-----------------|-----------------|
|-----------------|-----------------|
|-----9---9-9-----|-9---------------|
|-----7---7-7-----|-7---------------|
|-0-0---0-----0-0-|---0-0-0-0-0-0-0-|


   Verse
    $$
    Gtrs I, II
    PM|   PM    PM|     PM|               PM|   PM    PM|     PM----------|
||------------------|-------------------|-----------------|------------------|
||o-----------------|-------------------|-----------------|------------------|
||------------------|-------------------|-----------------|------------------|
||------9---9-9-----|-5-----7-(7)-10--9-|-----9---9-9-----|-9----------------|
||o-----7---7-7-----|-7-----7-(7)--7--7-|-----7---7-7-----|-7----------------|
||--0-0---0-----0-0-|---0-0-------------|-0-0---0-----0-0-|---0-0-0-0-0-0-0--|


  PM|    PM      PM|      PM|
|--------------------|-------------------|
|--------------------|-------------------|
|--------------------|-------------------|
|-----10---10-10-----|-10-----10-10--10--|
|-----10---10-10-----|--9------9--9--10--|
|-8-8----8-------8-8-|----8-8------------|


  PM|    PM      PM|      PM----------|
|--------------------|-------------------||
|--------------------|------------------o||
|--------------------|-------------------||
|-----10---10-10-----|-10----------------||
|-----10---10-10-----|-10---------------o||
|-8-8----8-------8-8-|----8-8-8-8-8-8-8--||


|----------|---------------------|------------|---------------|
|----------|---------------------|------------|---------------|
|-2--------|-2----(2)--(2)-------|------------|---------------|
|-2--------|-2----(2)--(2)-----4-|-(4)--------|-4---4-(4)-----|
|-0--------|-0----(0)--(0)-0-1-2-|-(2)--------|-3---2-(2)-----|
|----------|---------------------|------------|------------3--|


  Gtr I
|-------------------------------------|----------------------------------------|
|-------------------------------------|----------------------------------------|
|--2----------------------------------|-(2)--------------------------2---------|
|--2----------------------------------|-(2)--------------------------2----4----|
|--0----------------------------------|-(0)--------------------------0----2----|
|-------------------------------------|----------------------------------------|
|
| Gtr II
|-------------------------------------|----------------------------------------|
|-------------------------------------|----------------------------------------|
|-------------------------------------|----------------------------------------|
|-------------------------------------|----------------------------------------|
|-12-11-10----10-11-12-11-10----10-11-|-12--11-10----10-11-12-11-10----10---11-|
|----------12----------------12-------|-----------12----------------12---------|


                                                                   DTo Dbl. Coda
|--------------------------------------|-----------------------------------------|
|--------------------------------------|-----------------------------------------|
|--------------------------------------|-----------------------------------------|
|-(4)----------------------------------|-(4)-----------------4\------------------|
|-(2)----------------------------------|-(2)-----------------2-------------------|
|--------------------------------------|-----------------------------------------|
|
|--------------------------------------|-----------------------------------------|
|--------------------------------------|-----------------------------------------|
|--------------------------------------|-----------------------------------------|
|--------------------------------------|-----------------------------------------|
|-14--13-11----11-12-14-13-11----11-13-|-14--13-11----11-12-14--13-11----11-13---|
|-----------14----------------14-------|-----------14-----------------14---------|


  &
  Gtr I
|----------------|---------------|-----------------|-------------------|
|----------------|---------------|-----------------|-------------------|
|----------------|---------------|-----------------|-------------------|
|--4---4-(4)--4--|--(4)-4---4----|-2---------------|-(2)---------------|
|--2---2-(2)--2--|--(2)-2---2----|-2---------------|-(2)---------------|
|----------------|---------------|-0---------------|-(0)---------------|
|
| Gtr II                           Gtr III
|----------------|---------------|-----------------|-------------------|
|-12-------------|-(12)----------|-----------------|-------------------|
|----------------|---------------|-----------------|-------------------|
|--9-------------|--(9)----------|-----------------|-------------------|
|----------------|---------------|-----5-----4-----|--3----------------|
|----------------|---------------|-0-0---0-0---0-0-|-----0-0-2-3-2-0-2-|


                                           Bridge
                                            Gtr IV
|-------------------|-------------------||------------------|-------------0---|
|-------------------|-------------------||o-----------------|---------0-------|
|-------------------|-------------------||------------------|-----------------|
|-(2)---------------|-(2)---------------||------------------|-----2-----------|
|-(2)---------------|-(2)---------------||o-----------------|-----------------|
|-(0)---------------|-(0)---------------||------------------|-----------------|
|
|-------------------|-------------------||------------------|-----------------|
|-------------------|-------------------||o-----------------|-----------------|
|-------------------|-------------------||------------------|-----------------|
|-------------------|-----------2-----2-||------------------|-----------------|
|-------5-----4-----|--2------2-----2---||o-----5-----4-----|-3---------------|
|--0--0---0-0---0-0-|-----0-0-3---0-3---||--0-0---0-0---0-0-|---0-0-2-3-2-0-2-|


                                       4x
|-(0)---------------|-------------0----||
|-------------------|---------0-------o||
|-------------------|------------------||
|-------------------|-----2------------||
|-------------------|-----------------o||
|-------------------|------------------||
|
|                                      4x
|-------------------|------------------||
|-------------------|-----------------o||
|-------------------|------------------||
|-------------------|---------2-----2--||
|-------5-----4-----|-2---------------o||
|--0--0---0-0---0-0-|---0-0-3---0-3----||


      Gtr I
      PM|   PM|   PM|     PM----------|
|-||------------------|------------------|
|-||o-----------------|------------------|
|-||------------------|------------------|
|-||------------------|------------------|
|-||o-----5-----4-----|-3----------------|
|-||--0-0---0-0---0-0-|---0-0-2-3-2-0-2--|
|
|     Gtr II
|-||------------------|------------------|
|-||o-----------------|------------------|
|-||------------------|------------------|
|-||------------------|------------------|
|-||o-----------------|------------------|
|-||------------------|------------------|


                                           PM|   PM|   PM|     PM----------|
|-----------------|-----------------||-||------------------|------------------|
|-----------------|----------------o||-||o-----------------|------------------|
|-----------------|-----------------||-||------------------|------------------|
|-----------------|-----------------||-||------------------|------------------|
|-----------------|----------------o||-||o-----5-----4-----|-3----------------|
|-----------------|-----------------||-||--0-0---0-0---0-0-|---0-0-2-3-2-0-2--|
|
| PM|   PM|   PM|      PM|   PM|
|-----------------|-----------------||-||------------------|------------------|
|-----------------|----------------o||-||o-----------------|------------------|
|-----------------|-----------------||-||------------------|------------------|
|-----0-----------|--------2-----2--||-||------------------|------------------|
|-----------4-----|-2--------------o||-||o-----------------|------------------|
|-0-0---0-0---0-0-|----0-3---0-3----||-||------------------|------------------|


  PM|   PM|   PM|     PM|   PM|
|-----------------|------------------||
|-----------------|-----------------o||
|-----4-----3-----|-2-----3-----4----||
|-2-2---2-2---2-2-|---2-2---2-2------||
|-----------------|-----------------o||
|-----------------|------------------||
|
| PM|   PM|   PM|       PM|   PM|
|-----------------|------------------||
|-----------------|-----------------o||
|-----------------|------------------||
|-----0-----------|---------2-----2--||
|-----------4-----|-2---------------o||
|-0-0---0-0---0-0-|-----0-3---0-3----||


    Gtrs I, II
    PM|   PM|   PM|     PM----------------|   PM|   PM|      PM|   PM|
                                                                           4x
||------------------|-----------------|-----------------|------------------||
||o-----------------|-----------------|-----------------|-----------------o||
||------------------|-----------------|-----------------|------------------||
||------------------|-----------------|-----0-----------|--------2-----2---||
||o-----5-----4-----|-3---------------|-----------4-----|-2---------------o||
||--0-0---0-0---0-0-|---0-0-2-3-2-0-2-|-0-0---0-0---0-0-|----0-3---0-3-----||


    PM|            PM--|             PM|            PM------------|
                                                                      4x
||---------------|-----------------|--------------|-------------------||
||o--------------|-----------------|--------------|------------------o||
||---------------|-----------------|--------------|-------------------||
||---------------|-------2-(2)-2---|--------------|-------------------||
||o-----4--5--4--|-------0-(0)-0---|-----4--5--4--|------------------o||
||--0-0-2--3--2--|-0-2-3-----------|-0-0-2--3--2--|-0-0-0-0-0-0-0-0---||


 Guitar Solo
  Gtr I
   PM-|   PM|   PM|           PM-----------------------
|-------------------|---------------------------------|
|-------------------|---------------------------------|
|-------------------|---------------------------------|
|-------------------|---------------------------------|
|-------5-----4-----|--3------------------------------|
|--0--0---0-0---0-0-|---------0-0--2---3--2-------0-2-|
|
| Gtr II
|  \1                  \0.25/
|-12----------------|---------------------------------|
|-------------------|-15----------13-(13)---(13)-12---|
|-------------------|---------------------------------|
|-------------------|---------------------------------|
|-------------------|---------------------------------|
|-------------------|---------------------------------|


 ----|   PM|   PM|           PM|   PM|
|------------------|----------------------|
|------------------|----------------------|
|------------------|----------------------|
|------0-----------|-------------2-----2--|
|------------4-----|--2-------------------|
|--0-0---0-0---0-0-|---------0-3---0-3----|
|
|                     \0.25
|  ~~
|------------------|----------------------|
|-12---------------|-------------------|
|------------------|----------------------|
|------------------|----------------------|
|------------------|----------------------|
|------------------|----------------------|


  Gtr I
   PM---|      PM|           PM|        PM--------------------------
|---------------------------------|--------------------------------|
|---------------------------------|--------------------------------|
|---------------------------------|--------------------------------|
|---------------------------------|--------------------------------|
|-----------5----------4----------|--3-----------------------------|
|--0----0------0--0----------0--0-|-----0--0-----2--3----2---0---2-|
|
|----------------12-15---12----12-|--------------------------------|
|---------------------------15----|-15-12-------12-----------------|
|-15b17---(15)--------------------|-------14b16----14b16r==(14)p12-|
|---------------------------------|--------------------------------|
|---------------------------------|--------------------------------|
|---------------------------------|--------------------------------|


 -------|       PM|           PM|           PM|       PM|
|----------------------------------|------------------------|
|----------------------------------|------------------------|
|----------------------------------|------------------------|
|-------------0--------------------|---------------2------2-|
|-----------------------4----------|--2---------------------|
|--0----0-------0--0----------0--0-|--------0--3------0-3---|
|
|                                                  ~~~~
|----------------------------------|------------------------|
|----------------------------------|------------------------|
|-14p12------12--------------------|------------------------|
|---------14------14p12------12----|------------------------|
|-------------------------14----14-|-12S10-12-10-(10)-------|
|----------------------------------|------------------------|


  Gtr I
  PM--|         PM---|           PM---|            PM------------------------------
|------------------------------------------|--------------------------------------|
|------------------------------------------|--------------------------------------|
|------------------------------------------|--------------------------------------|
|------------------------------------------|--------------------------------------|
|----------5---------------4---------------|--3-----------------------------------|
|-0---0---------0-----0----------0----0----|-------0-----0----2-----3----2---0--2-|
|
| Gtr II
|------------------------------------------|--------------------------------------|
|----------5--7----8-------------8-10---12-|-------------7--8---10-10b12---(10)---|
|-4-5----7------------7--8---11------------|--7--9---10---------------------------|
|------------------------------------------|--------------------------------------|
|------------------------------------------|--------------------------------------|
|------------------------------------------|--------------------------------------|
|
| Gtr V
|------------------------------------------|------------12-14---15-15b17---(15)---|
|----------8-10---12------------12-13---15-|-12-13---15---------------------------|
|-7-9---11-----------11-12---14------------|--------------------------------------|
|------------------------------------------|--------------------------------------|
|------------------------------------------|--------------------------------------|
|------------------------------------------|--------------------------------------|


 ---|     PM---|        PM-|          PM|      PM|
|----------------------------|-----------------------|
|----------------------------|-----------------------|
|----------------------------|-----------------------|
|------0---------------------|--------------2------2-|
|-------------------4--------|--2--------------------|
|-0-0-----0------0------0--0-|--------0--3-----0-3---|
|
|                                              ~~
|-----12---------------------|-----------------------|
|--------15b17r(15)---(15)---|-12----------14--------|
|----------------------------|----14-12----14-12-----|
|----------------------------|----------14-----------|
|----------------------------|-----------------------|
|----------------------------|-----------------------|
|
|----------------------------|-----------------------|
|----------------------------|-----------------------|
|----------------------------|-----------------------|
|----------------------------|-----------------------|
|----------------------------|-----------------------|
|----------------------------|-----------------------|


  Gtr I
  PM--|      PM--|      PM----|           PM-------------
|-----------------------------------|-------------------|
|-----------------------------------|-------------------|
|-----------------------------------|-------------------|
|-----------------------------------|-------------------|
|--------5-----------4--------------|--3----------------|
|-0---0------0----0-----0-------0---|-----0-0-2-3-2-0-2-|
|
| Gtr II
|-----------------------------------|-------------------|
|----------------------[9]b10-([9])-|-(9)-----------9---|
|------------7b9-(7)----------------|-------------------|
|-7b9---(7)-------------------------|-------------------|
|-----------------------------------|-------------------|
|-----------------------------------|-------------------|


 -------|     PM|      PM|        PM|   PM|
|---------------------------|------------------|
|---------------------------|------------------|
|---------------------------|------------------|
|----------0----------------|---------2-----2--|
|-------------------4-------|--2---------------|
|--0----0-----0--0-----0--0-|-----0-3---0-3----|
|
|                              ~~
|---------12----------------|------------------|
|-15b17------15-14-12-------|-12---------------|
|---------------------15-14-|------------------|
|---------------------------|------------------|
|---------------------------|------------------|
|---------------------------|------------------|


    PM|             PM--|              PM|             PM------------|
||----------------|------------------|---------------|-------------------||
||o---------------|------------------|---------------|------------------o||
||----------------|------------------|---------------|-------------------||
||----------------|--------2-(2)-2---|---------------|-------------------||
||o-----4---5--4--|--------0-(0)-0---|-----4---5--4--|------------------o||
||--0-0-2---3--2--|-0-2--3-----------|-0-0-2---3--2--|-0-0-0-0-0-0-0-0---||
|
||----------------|------------------|---------------|-------------------||
||o---------------|------------------|---------------|------------------o||
||----------------|------------------|---------------|-------------------||
||----------------|--------7-(7)-7---|---------------|-------------------||
||o-7---9--10--9--|-7-9-10-----------|-7---9--10--9--|-7-7-7-7-7-7-7-7--o||
||----------------|------------------|---------------|-------------------||


  PM|             PM--|              PM|             PM------------|
|---------------|------------------|---------------|------------------|
|---------------|------------------|---------------|------------------|
|---------------|------------------|---------------|------------------|
|---------------|--------2-(2)-2---|---------------|------------------|
|-----4---5--4--|--------0-(0)-0---|-----4---5--4--|------------------|
|-0-0-2---3--2--|-0-2--3-----------|-0-0-2---3--2--|-0-0-0-0-0-0-0--0-|
|
|---------------|------------------|---------------|------------------|
|---------------|------------------|---------------|---------------12-|
|---------------|------------------|---------------|------------------|
|---------------|--------7-(7)-7---|---------------|------------------|
|-7---9--10--9--|-7-9-10-----------|-7---9--10--9--|-7-7-7-7-7-7-7----|
|---------------|------------------|---------------|------------------|


  PM|                PM---|
|-----------------|-----------------------------|
|-----------------|-----------------------------|
|-----------------|-----------------------------|
|-----------------|-----------2-----(2)--2------|
|------4---5---4--|-----------0-----(0)--0------|
|-0-0--2---3---2--|--0--2--3--------------------|
|
|                                        ~~~~~
|-----------------|-12-14-15-17b19-(17)-17b19---|
|-8---10--12--10--|-----------------------------|
|-----------------|-----------------------------|
|-----------------|-----------------------------|
|-----------------|-----------------------------|
|-----------------|-----------------------------|


                           D.S.S. al Dbl. Coda
  PM|                         PM------------|
|--------------------------|-------------------|
|--------------------------|-------------------|
|--------------------------|-------------------|
|--------------------------|-------------------|
|------4--------5-----4----|-------------------|
|-0-0--2--------3-----2----|--0-0-0-0-0-0-0-0--|
|
|                             ~~
|-----17-19-17----17-19S22-|-22----------------|
|--------------20----------|-------------------|
|--------------------------|-------------------|
|--------------------------|-------------------|
|--------------------------|-------------------|
|--------------------------|-------------------|


 Chorus
  &&
|------------------|-------------------|------------------|-------------------|
|------------------|-------------------|------------------|-------------------|
|------------------|-------------------|------------------|-------------------|
|------------------|-------------------|--7h9-9-7h9-9-7h9-|---9--7h9-9-7h9-9--|
|--5-----6-----7---|------8-----9---9--|--7---7-7---7-7---|---7--7---7-7---7--|
|--3p0-0-4p0-0-5p0-|---0--6p0-0-7---7--|------------------|-------------------|
|
|-12---------------|-(12)----------12--|-12---------------|-(12)--------------|
|------------------|-------------------|------------------|-------------------|
|--9---------------|--(9)-----------9--|--9---------------|--(9)--------------|
|------------------|-------------------|------------------|-------------------|
|------------------|-------------------|------------------|-------------------|
|------------------|-------------------|------------------|-------------------|


|------------------|---------------------|------------------|------------------|
|------------------|---------------------|------------------|------------------|
|------------------|---------------------|------------------|------------------|
|------------------|---------------------|------------------|------------------|
|------------------|---------------------|--5-----6-----7---|------8-----9--9--|
|--8-8-8-8-8-8-8-8-|---8--8-8-8-8-8--8-8-|--3p0-0-4p0-0-5p0-|---0--6p0-0-7--7--|
|
|------------------|---------------------|-12---------------|-(12)-------------|
|-13---------------|-(13)-----------13---|------------------|------------------|
|------------------|---------------------|--9---------------|--(9)-------------|
|-10---------------|-(10)-----------10---|------------------|------------------|
|------------------|---------------------|------------------|------------------|
|------------------|---------------------|------------------|------------------|


|------------------|-------------------|------------------|-------------------|
|------------------|-------------------|------------------|-------------------|
|------------------|-------------------|------------------|-------------------|
|------------------|-------------------|--7h9-9-7h9-9-7h9-|---9--7h9-9-7h9-9--|
|--5-----6-----7---|------8-----9---9--|--7---7-7---7-7---|---7--7---7-7---7--|
|--3p0-0-4p0-0-5p0-|---0--6p0-0-7---7--|------------------|-------------------|
|
|-12---------------|-(12)----------12--|-15---------------|-(15)--------------|
|------------------|-------------------|------------------|-------------------|
|--9---------------|--(9)-----------9--|-12---------------|-(12)--------------|
|------------------|-------------------|------------------|-------------------|
|------------------|-------------------|------------------|-------------------|
|------------------|-------------------|------------------|-------------------|


|------------------|--------------------|----------------|----------------|
|------------------|--------------------|----------------|----------------|
|------------------|--------------------|--2---2-(2)--2--|--(2)-2---2--2--|
|------------------|--------------------|--2---2-(2)--2--|--(2)-2---2--2--|
|------------------|--------------------|--0---0-(0)--0--|--(0)-0---0--0--|
|--8-8-8-8-8-8-8-8-|---8--8-8-8-8-8-8-8-|----------------|----------------|
|
|------------------|--------------------|-15-------------|-(15)-----------|
|-13---------------|-(13)---------------|----------------|----------------|
|------------------|--------------------|-12-------------|-(12)-----------|
|-10---------------|-(10)---------------|----------------|----------------|
|------------------|--------------------|----------------|----------------|
|------------------|--------------------|----------------|----------------|


  Gtrs I, II
|---------------|--------------|----------|------------|--------|
|---------------|--------------|----------|------------|--------|
|---------------|--------------|----------|------------|--------|
|-4---4-(4)--4--|-(4)-4---4----|-2--------|-(2)--------|-(2)----|
|-2---2-(2)--2--|-(2)-2---2----|-2--------|-(2)--------|-(2)----|
|---------------|--------------|-0--------|-(0)--------|-(0)----|


   Outro
    Gtr I
    PM|            PM--|                  PM|              PM-------------|
||---------------|---------------------|---------------|---------------------|
||o--------------|---------------------|---------------|---------------------|
||---------------|---------------------|---------------|---------------------|
||---------------|--------2--(2)-2-----|---------------|---------------------|
||o-----4--5--4--|--------0--(0)-0-----|------4--5--4--|---------------------|
||--0-0-2--3--2--|-0-2-3---------------|--0-0-2--3--2--|---0--0-0-0-0-0-0-0--|
|
|   Gtr II
||---------------|---------------------|---------------|---------------------|
||o-5------------|-8-----10-(10)---13--|-12------------|-(12)----------------|
||---------------|---------------------|---------------|---------------------|
||--2------------|-5------7--(7)----7--|--9------------|--(9)----------------|
||o--------------|---------------------|---------------|---------------------|
||---------------|---------------------|---------------|---------------------|


  PM|            PM--|                  PM|             PM------------|
                                                                         3x
|--------------|---------------------|----------------|------------------||
|--------------|---------------------|----------------|-----------------o||
|--------------|---------------------|----------------|------------------||
|--------------|--------2--(2)-2-----|----------------|------------------||
|-----4--5--4--|--------0--(0)-0-----|------4---5--4--|-----------------o||
|-0-0-2--3--2--|-0-2-3---------------|--0-0-2---3--2--|-0-0-0-0-0-0-0-0--||
|
|                                                                        3x
|--------------|---------------------|----------------|------------------||
|-5------------|-8-----10-(10)---13--|-12------10--8--|-5---------------o||
|--------------|---------------------|----------------|------------------||
|-2------------|-5------7--(7)----7--|--9-------7--5--|-2----------------||
|--------------|---------------------|----------------|-----------------o||
|--------------|---------------------|----------------|------------------||


Tablature Legend
----------------
 h   - hammer-on
 p   - pull-off
 b   - bend
 pb  - pre-bend
 r   - bend release (if no number after the r, then release immediately)
 /\  - slide into or out of (from/to "nowhere")
 s   - legato slide
 S   - shift slide
  - natural harmonic
[n]  - artificial harmonic
n(n) - tapped harmonic
 ~   - vibrato
 tr  - trill
 T   - tap
 TP  - trem. picking
 PM  - palm muting
\n/  - tremolo bar dip; n = amount to dip
 \n  - tremolo bar down
 n/  - tremolo bar up
/n\  - tremolo bar inverted dip
 =   - hold bend; also acts as connecting device for hammers/pulls
   - volume swell (louder/softer)
 x   - on rhythm slash represents muted slash


Important: The song above is NOT stored on the Chordie server. The original song is hosted at www.xguitar.com. Chordie works as a search engine and provides on-the-fly formatting. Chordie does not index songs against artists/composers will. To remove this song please click here.

This song is displayed as text-only. Transposing and tuning is only available for chordpro-songs.

Login - add to songbook

Rating click stars to rate

Layout
Accuracy

SHARE PAGE  




You need to log in to post comments