Guitar Tabs, Chords and Lyrics


Of Wolf And Man  Metallica



e:------------|-----------|-----------|-----------|-----------|-----------|


B:------------|-----------|-----------|-----------|-----------|-----------|


G:------------|-----------|-----------|-----------|-----------|-----------|


D:-2--2--2--2-|2--2--2--2-|2--2--2--2-|2--2--2--2-|2--2--2--2-|2--2--2--2-|


A:-2--2--2--2-|2--2--2--2-|2--2--2--2-|2--2--2--2-|2--2--2--2-|2--2--2--2-|


E:-0--0--0--0-|0--0--0--0-|0--0--0--0-|0--0--0--0-|0--0--0--0-|0--0--0--0-|
e:-----------------------------|-----------------------------|
B:-----------------------------|-----------------------------|
G:-----------------------------|-----------------------------|
D:---------------------4-----3-|---------------------4-----3-|
A:------------3--2-----2-----1-|------------3--2-----2-----1-|
E:-0----0--0--1--0--0-----0----|-0----0--0--1--0--0-----0----|
e:---------------------------------|
B:---------------------------------|
G:---------------------------------|
D:----------------------------4--3-|
A:------------3--2------------2--1-|
E:-0----0--0--1--0--0---0--0-------|

Off through the [F5]new [E5]day's [B5]mist [Bb5]I    [E5]run.
              Out from the [F5]new [E5]day's [B5]mist [Bb5] I   [F5]have [E5]come.
I [F5]   [E5]hunt, therefore [F5]I  [E5]am.
Harvest [F5]the [E5]land.
Taking of [F5]the [E5]fal__len [B5]    [Bb5]lamb.
e:----------------------------|-------------------------------|-|
B:----------------------------|-------------------------------|-|
G:----------------------------|-------------------------------|-|
D:--------------------4-----3-|-------------------------------|-|
A:-----------3--2-----2-----1-|--------5-7-5-0-5-7---5-7--7\--|-|
E:0----0--0--1--0--0-----0----|--5--7-------------------------|-|

Off through the [F5]new [E5]day's [B5]mist [Bb5]I    [E5]run.
Out from the [F5]new [E5]day's [B5]mist [Bb5] I   [F5]have [E5]come.
We [F5]   [E5]shift,[B5]   [Bb5]   pulsing with the earth.
Company we keep[F5],  [E5]   roaming the land while you
Shape shift.
sleep. Oh... Nose to the wind.
e:---------------|----------------||--------------------------------|
B:---------------|----------------||--------------------------------|
G:---------------|----------------||--------------------------------|
D:-2---2---2---2-|-----4-------3--||----------------------4-------3-|
A:-2---2---2---2-|-----2-------1--||--2---2---3---2-------2-------1-|
E:-0---0---0---0-|-0-------0------||--0---0---1---0---0-------0-----|

Shape shift.
Move shift
Feeling I've been All senses clean
e:-------------------------------|-------------------------------|
B:-------------------------------|-------------------------------|
G:-------------------------------|-------------------------------|
D:---------------------6-------5-|---------------------6-------5-|
A:-2---2---3---2-------4-------3-|-4---4---5---4-------4-------3-|
E:-0---0---1---0---0-------0-----|-2---2---3---2---0-------0-----|

Earth's gift
(Back to the meaning),back to the meaning of... life.
e:-----------------------------------------|------------------|
B:-----------------------------------------|------------------|
G:-----------------------------------------|------------------|
D:-----------------------------------------|------------------|
A:-----------5---4-------------5---4-------|-4---4---4--------|
E:-2---2-2---3---2---2---2-2---3---2-------|-2---2---2---14\--|

- Additional lyrics :
Bright is the moon,high in starlight.
Chill in the air,cold as steel tonight.
We shift.Call of the wild.
Fear in your eyes.It's later than you realized.
********************
That's all for now.For any comments: A.Stefanou
From: dosc@comnets.rwth-aachen.de
Solo from the song "Of Wolf and Man" by Metallica. This solo contains some nice patterns
(marked with *) which you can use for own solos.
e:----------------------------------------|
B:----------------------------------------|
G:---4p2p0---0----4p2p0---0----4p2p0------|
D:---------2------------2------------2p0--|
A:----------------------------------------|
E:----------------------------------------|

AH AH pitch F# (at 23)
|-------------------------------------------------|
|-------------------------------------------------|
|--4p2p0------------4p2p0-4p2p0-------------------|
|-------4p2p0-------------------4p2p0-4p2p0-------|
|-------------4p2p0-------------------------4p2p0-|
|-------------------------------------------------|
|-----------           -|-                ----------------------------------|
|-----------                              ----------------------------------|
|-----------                              ------------------12-14-14b(16)---|
|-----------                              ------------12h14-----------------|
|-2p0-3p0-- ... these pull-offs up to ... -12p0-12h14-----------------------|
|-----------                              ----------------------------------|
           repeat this pattern 8 times: <-----------> *
|-------------------------------------- ------------- -|
|---------------12-15---------12-15p12- ----12h15p12- -|
|-12-------9s14-------14b(16)---------- -14---------- -|
|----14-------------------------------- ------------- -|
|-------------------------------------- ------------- -|
|-------------------------------------- ------------- -|

~~~~~~~~~~~~
|-------------------------12------------------12----------|
|-15b(17)-15b(17)----(17)----15p12---------12----15p12----|
|----------------------------------14b(16)----------------|
|---------------------------------------------------------|
|---------------------------------------------------------|
|---------------------------------------------------------|
|---------12-12---------------------------------------------------|
|---------------15p12---------12-15p12----------------------------|
|-14b(16)-------------14b(16)----------14p12----12-14b---(16)-----|
|--------------------------------------------14-------------------|
|-----------------------------------------------------------------|
|-----------------------------------------------------------------|

~~~~~~~~~~~ *
|----------------------|---------------------------------------|
|----------------------|-15--15-15--15-15--17p15----15--15-15--|
|-12-------------------|-15--15-15--15-15--17p15----15--15-15--|
|----14------(14)\8/17-|-------------------------17------------|
|----------------------|---------------------------------------|
|----------------------|---------------------------------------|
|-----------------------------------------------|
|-17p15-----------------------------------------|
|-17p15----15-17p15----15-17p15------------15\--|
|-------17----------17----------17-15-17--------|
|-----------------------------------------------|
|-----------------------------------------------|

*
|------------------------------------|
|---------------------------8----8---|
|----------8----8--10-8-10----10-----|
|-10-8-10----10----------------------|
|------------------------------------|
|------------------------------------|
                     play 11 bent to 13: <-----------------------------
|---------8------------------------------------------------------------|
|-11b(13)---11p8---------8-11p8-11b(13)--[13]-[13]-[13]-[13]-[13]-[13]-|
|----------------10b(11)-----------------------------------------------|
|----------------------------------------------------------------------|
|----------------------------------------------------------------------|
|----------------------------------------------------------------------|
--------------------------------------------------------->
|---------------------------------------------------------|
|-[13]--[13]-[13]-[13]-[13]--[13]--[13]--[13]--[13]--[13]-|
|---------------------------------------------------------|
|---------------------------------------------------------|
|---------------------------------------------------------|
|---------------------------------------------------------|

~~~~~~~~~
|-------------------------------------|
|-(13)-------r(11)-8------------------|
|--------------------9----------------|
|------------------------------10/14--|
|-------------------------------------|
|-------------------------------------|

repeat this 4 times: *
   <-------------------->
|- ---------------------- ----------------------|------------|----------------|
|- -------------14p12---- -------------------12-|-(12)----12-|-(12)---(12)\---|
|- -12h14p12------------- -12h14p12----------12-|-(12)----12-|-(12)---(12)\---|
|- ----------14-------14- ----------14-12-14----|------------|----------------|
|- ---------------------- ----------------------|------------|----------------|
|- ---------------------- ----------------------|------------|----------------|


Important: The song above is NOT stored on the Chordie server. The original song is hosted at www.xguitar.com. Chordie works as a search engine and provides on-the-fly formatting. Chordie does not index songs against artists'/composers' will. To remove this song please click here.

Text color:
Chord color:
Chord grids: 
Font size:    
Page size: 

B5 Bb5 E5 F5
variations - click chord images

Login - add to songbook

Transpose chords

Tuning

Rating click stars to rate

Layout
Accuracy

SHARE PAGE  




You need to log in to post comments