Chordie logo


Love Me Like That    Michelle Branch



\'Love Me Like That\' by Michelle Branch
Tabbed by Tony Le (boybaka@hotmail.com)

------------------------------------------------------------------------------------
Ignore the low rating, it used to be a 5 until I started helping approve tabs.
Some losers get mad at people that vote no on their tab, so they rate all my tabs 1.
------------------------------------------------------------------------------------

(Sorry, mxtabs is adding slashes (\\) in some places, just delete the extra)

Song\'s kinda fast, so I can\'t get all the notes, but I think I got the main ones.
Some parts sounded empty so I threw in some notes I thought might be there, but wasn\'t sure.
Sounds fine to me though.

My symbols used:
 h = hammer on
 p = pull off
 |-*|    ||--|-*||
 |--| or ||--|--||= repeat everything between
 |-*|    ||--|-*||
 (first/second ending) = play the first one your first time through the phrase;
                         after you repeat, skip first and play the second ending

Capo 1st fret

Intro:                      (play 3x)
e|----------------------------------|---------------------------------|
B|-------0-------0-------0-------0-*|-------0---------------0---------|
G|----------------------------------|---------------------------------|
D|-0h2h4---7p4p0-------4-------4----|-----4-----4---4-----4-----4-----|
A|-----------------5p2-----2-------*|-0-----------0---0h2---------2---|
E|----------------------------------|---------------------------------|


Verse:                      (play 6x)                       (play 2x)
e|----------------------------------|---------------------------------|
B|-------0-------0-------0-------0-*|-------0---------------0---------|
G|----------------------------------|---------------------------------|
D|-0h2h4---7p4p0-------4-------4----|-----4-----4---4-----4-----4-----|
A|-----------------5p2-----2-------*|-0-----------0---0h2---------2---|
E|----------------------------------|---------------------------------|


Prechorus:                                                  (play 2x)
e|------------------------------------------------------------------|
B|-------0-------0-------0-------0-------0-------0-------0-------0-*|
G|------------------------------------------------------------------|
D|-----4-----4---------4-----4---------4-----4---------4-----4------|
A|-----------------------------------------------------------------*|
E|-3-----------3---3-----------3---5-----------5---5-----------5----|

   (2x sometimes)
|---------------|
|-----0---------|
|---------------|
|---4-----4---4-|
|---------------|
|-5---------5---|


Chorus:
e||-----------------------------------------------------------------|
B||-------0---------------0---------------0---------------0---------|
G||-----------------------------------------------------------------|
D||-----4-----4---4-----4-----4---4-----4-----4---4-----4-----4---4-|
A||-2-----------2---2-----------2---0-----------0---0-----------0---|
E||-----------------------------------------------------------------|

                                  (1st ending)
|---------------------------------|----------------------------------||
|-------0---------------0---------|-------0---------------0---------*||
|---------------------------------|----------------------------------||
|-----4-----4---4-----4-----4---4-|-----4-----4---4-----4-----4---4--||
|---------------------------------|-0-----------0---0-----------0---*||
|-4-----------4---4-----------4---|----------------------------------||

(2nd ending)               (play 2x)
|----------------------------------|
|-------0---------------0---------*|
|----------------------------------|
|-----4-----4---4-----4-----4---4--|
|---------------------------------*|
|-3-----------3---5-----------5----|


There\'s a second guitar part you can hear sometimes, sounds like:
e|-5-7-5-7-5-7-5-7-|
B|-----------------|
G|-----------------|
D|-----------------|
A|-----------------|


Important: The song above is NOT stored on the Chordie server. The original song is hosted at www.xguitar.com. Chordie works as a search engine and provides on-the-fly formatting. Chordie does not index songs against artists/composers will. To remove this song please click here.

This song is displayed as text-only. Transposing and tuning is only available for chordpro-songs.

Login - add to songbook

Rating click stars to rate

Layout
Accuracy

SHARE PAGE  




You need to log in to post comments