Guitar Tabs, Chords and Lyrics


God Gave Me Everything    Mick Jagger



MICK JAGGER
feat. Lenny kraviz

god gave me everything


album: Goddess in the Doorway



transcribed by Rudy Guzman


guzman_84@hotmail.com

  i dont know why i decided to tab this, oh man!!! :/

 e|--------------------------------------------------------------------|
 B|-----5-5-5-----5-5-5------8-8-8-8-----------------------------------|
 G|-6-6-6-6-6-6-6-6-6-6-6-6--9-9-9-9-9-9-9--6-6-6-6--------3-3-3-------|
 D|-6-6-6-6-6-6-6-6-6-6-6-6--9-9-9-9-9-9-9--7-7-7-7-7-7-7--4-4-4-4-4-4-|
 A|-4-4-4-4-4-4-4-4-4-4-4-4--7-7-7-7-7-7-7--7-7-7-7-7-7-7--4-4-4-4-4-4-|
 E|-----------------------------------------5-5-5-5-5-5-5--2-2-2-2-2-2-|


 e|--------------------------------------------------------------------|
 B|-----5-5-5-----5-5-5------8-8-8-8-----------------------------------|
 G|-6-6-6-6-6-6-6-6-6-6-6-6--9-9-9-9-9-9-9--6-6-6-6--------3-3-3-------|
 D|-6-6-6-6-6-6-6-6-6-6-6-6--9-9-9-9-9-9-9--7-7-7-7-7-7-7--4-4-4-4-4-4-|
 A|-4-4-4-4-4-4-4-4-4-4-4-4--7-7-7-7-7-7-7--7-7-7-7-7-7-7--4-4-4-4-4-4-|
 E|-----------------------------------------5-5-5-5-5-5-5--2-2-2-2-2-2-|


   verse
   gt1
 e|-----0-----0-------------0-------0----------0-----0---------------------|
 B|-------0-----0-------------0-------0----------0-----0--------2-----2----|
 G|---------6-----6------4------------------------------------1-----1---1--|
 D|---6---------------2----------2------2----4-----------4--2-----2-------2|
 A|-4--------------------------------------2-------2-----------------------|
 E|------------------------------------------------------------------------|

   gt2
 e|-----0-0-0-0---0-0-0-0--------0-0-0-0-0------0-0-0-0-0--0-0-0-0-0-0-|
 B|-----0-0-0-0---0-0-0-0--------0-0-0-0-0------0-0-0-0-0--2-2-2-2-2-2-|
 G|-6-6-6-6-6-6-6-6-6-6-6-6--9-9-9-9-9-9-9--4-4-4-4-4-4-4--1-1-1-1-1-1-|
 D|-6-6-6-6-6-6-6-6-6-6-6-6--9-9-9-9-9-9-9--4-4-4-4-4-4-4--2-2-2-2-2-2-|
 A|-4-4-4-4-4-4-4-4-4-4-4-4--7-7-7-7-7-7-7--2-2-2-2-2-2-2--------------|
 E|--------------------------------------------------------------------|



   gt1
 e|-----0-----0-------------0-------0----------0-----0---------------------|
 B|-------0-----0-------------0------0-----------0-----0--------2-----2----|
 G|---------6-----6-------------------------------------------1-----1---1--|
 D|---6-------------------9------------------4-----------4--2-----2-------2|
 A|-4-------------------7-------7------7---2-------2-----------------------|
 E|------------------------------------------------------------------------|

   gt2
 e|-----0-0-0-0---0-0-0-0--------0-0-0-0-0------0-0-0-0-0--0-0-0-0-0-0-|
 B|-----0-0-0-0---0-0-0-0--------0-0-0-0-0------0-0-0-0-0--2-2-2-2-2-2-|
 G|-6-6-6-6-6-6-6-6-6-6-6-6--9-9-9-9-9-9-9--4-4-4-4-4-4-4--1-1-1-1-1-1-|
 D|-6-6-6-6-6-6-6-6-6-6-6-6--9-9-9-9-9-9-9--4-4-4-4-4-4-4--2-2-2-2-2-2-|
 A|-4-4-4-4-4-4-4-4-4-4-4-4--7-7-7-7-7-7-7--2-2-2-2-2-2-2--------------|
 E|--------------------------------------------------------------------|


   god gave me everything i´ve won.....
 e|--------------------------------------------------------------------|
 B|-----5-5-5-----5-5-5------8-8-8-8-----------------------------------|
 G|-6-6-6-6-6-6-6-6-6-6-6-6--9-9-9-9-9-9-9--6-6-6-6--------3-3-3-------|
 D|-6-6-6-6-6-6-6-6-6-6-6-6--9-9-9-9-9-9-9--7-7-7-7-7-7-7--4-4-4-4-4-4-|
 A|-4-4-4-4-4-4-4-4-4-4-4-4--7-7-7-7-7-7-7--7-7-7-7-7-7-7--4-4-4-4-4-4-|
 E|-----------------------------------------5-5-5-5-5-5-5--2-2-2-2-2-2-|

 e|--------------------------------------------------------------------|
 B|-----5-5-5-----5-5-5------8-8-8-8-----------------------------------|
 G|-6-6-6-6-6-6-6-6-6-6-6-6--9-9-9-9-9-9-9--6-6-6-6--------3-3-3-------|
 D|-6-6-6-6-6-6-6-6-6-6-6-6--9-9-9-9-9-9-9--7-7-7-7-7-7-7--4-4-4-4-4-4-|
 A|-4-4-4-4-4-4-4-4-4-4-4-4--7-7-7-7-7-7-7--7-7-7-7-7-7-7--4-4-4-4-4-4-|
 E|-----------------------------------------5-5-5-5-5-5-5--2-2-2-2-2-2-|




      and i saw it in a....
   gt1
 e|-----0-----0-------------0-------0----------0-----0---------------------|
 B|-------0-----0-------------0------0-----------0-----0--------2-----2----|
 G|---------6-----6-------------------------------------------1-----1---1--|
 D|---6-------------------9------------------4-----------4--2-----2-------2|
 A|-4-------------------7-------7------7---2-------2-----------------------|
 E|------------------------------------------------------------------------|

   gt2
 e|-----0-0-0-0---0-0-0-0--------0-0-0-0-0------0-0-0-0-0--0-0-0-0-0-0-|
 B|-----0-0-0-0---0-0-0-0--------0-0-0-0-0------0-0-0-0-0--2-2-2-2-2-2-|
 G|-6-6-6-6-6-6-6-6-6-6-6-6--9-9-9-9-9-9-9--4-4-4-4-4-4-4--1-1-1-1-1-1-|
 D|-6-6-6-6-6-6-6-6-6-6-6-6--9-9-9-9-9-9-9--4-4-4-4-4-4-4--2-2-2-2-2-2-|
 A|-4-4-4-4-4-4-4-4-4-4-4-4--7-7-7-7-7-7-7--2-2-2-2-2-2-2--------------|
 E|--------------------------------------------------------------------|


   gt1
 e|-----0-----0-------------0-------0----------0-----0---------------------|
 B|-------0-----0-------------0------0-----------0-----0--------2-----2----|
 G|---------6-----6-------------------------------------------1-----1---1--|
 D|---6-------------------9------------------4-----------4--2-----2-------2|
 A|-4-------------------7-------7------7---2-------2-----------------------|
 E|------------------------------------------------------------------------|

   gt2
 e|-----0-0-0-0---0-0-0-0--------0-0-0-0-0------0-0-0-0-0--0-0-0-0-0-0-|
 B|-----5-5-5-5---5-5-5-5--------0-0-0-0-0------0-0-0-0-0--2-2-2-2-2-2-|
 G|-6-6-6-6-6-6-6-6-6-6-6-6--9-9-9-9-9-9-9--4-4-4-4-4-4-4--1-1-1-1-1-1-|
 D|-6-6-6-6-6-6-6-6-6-6-6-6--9-9-9-9-9-9-9--4-4-4-4-4-4-4--2-2-2-2-2-2-|
 A|-4-4-4-4-4-4-4-4-4-4-4-4--7-7-7-7-7-7-7--2-2-2-2-2-2-2--------------|
 E|--------------------------------------------------------------------|


            repeat
   god gave me everything....
 e|--------------------------------------------------------------------|
 B|-----5-5-5-----5-5-5------8-8-8-8-----------------------------------|
 G|-6-6-6-6-6-6-6-6-6-6-6-6--9-9-9-9-9-9-9--6-6-6-6--------3-3-3-------|
 D|-6-6-6-6-6-6-6-6-6-6-6-6--9-9-9-9-9-9-9--7-7-7-7-7-7-7--4-4-4-4-4-4-|
 A|-4-4-4-4-4-4-4-4-4-4-4-4--7-7-7-7-7-7-7--7-7-7-7-7-7-7--4-4-4-4-4-4-|
 E|-----------------------------------------5-5-5-5-5-5-5--2-2-2-2-2-2-|



 e|---7-7-7-7-7-7-7-7-7-7-7-7-7-7----5-5-5-5-5-5-5-5-5-5-|
 B|---7-7-7-7-7-7-7-7-7-7-7-7-7-7----5-5-5-5-5-5-5-5-5-5-|
 G|---8-8-8-8-8-8-8-8-8-8-8-8-8-8--6-6-6-6-6-6-6-6-6-6-6-|
 D|-9-9-9-9-9-9-9-9-9-9-9-9-9-9-9--7-7-7-7-7-7-7-7-7-7-7-|
 A|-9-9-9-9-9-9-9-9-9-9-9-9-9-9-9--7-7-7-7-7-7-7-7-7-7-7-|
 E|-7-7-7-7-7-7-7-7-7-7-7-7-7-7-7--5-5-5-5-5-5-5-5-5-5-5-|


   solo
 e|-------------------------------------------------------------------------|
 B|--17p14----14-17p14----14-17p14----14~~~-16-17-(17)-17b-16---------------|
 G|--------16----------16----------16-------------------------13~~~-11-9-11-|
 D|-------------------------------------------------------------------------|
 A|-------------------------------------------------------------------------|
 E|-------------------------------------------------------------------------|


 e|-----------------------------------------------------------------------|
 B|------------------------------------14--14-14-14-16-17-19-17-19-19b~~~-|
 G|-9-11-11/13-13-13-13-13-16~~--13-16------------------------------------|
 D|-----------------------------------------------------------------------|
 A|-----------------------------------------------------------------------|
 E|-----------------------------------------------------------------------|


   god gave me everthing i´ve won...
 e|--------------------------------------------------------------------|
 B|-----5-5-5-----5-5-5------8-8-8-8-----------------------------------|
 G|-6-6-6-6-6-6-6-6-6-6-6-6--9-9-9-9-9-9-9--6-6-6-6--------3-3-3-------|
 D|-6-6-6-6-6-6-6-6-6-6-6-6--9-9-9-9-9-9-9--7-7-7-7-7-7-7--4-4-4-4-4-4-|
 A|-4-4-4-4-4-4-4-4-4-4-4-4--7-7-7-7-7-7-7--7-7-7-7-7-7-7--4-4-4-4-4-4-|
 E|-----------------------------------------5-5-5-5-5-5-5--2-2-2-2-2-2-|

   repeat this riff till the ends or fade away....whatever
 e|--------------------------------------------------------------------|
 B|-----5-5-5-----5-5-5------8-8-8-8-----------------------------------|
 G|-6-6-6-6-6-6-6-6-6-6-6-6--9-9-9-9-9-9-9--6-6-6-6--------3-3-3-------|
 D|-6-6-6-6-6-6-6-6-6-6-6-6--9-9-9-9-9-9-9--7-7-7-7-7-7-7--4-4-4-4-4-4-|
 A|-4-4-4-4-4-4-4-4-4-4-4-4--7-7-7-7-7-7-7--7-7-7-7-7-7-7--4-4-4-4-4-4-|


Important: The song above is NOT stored on the Chordie server. The original song is hosted at www.xguitar.com. Chordie works as a search engine and provides on-the-fly formatting. Chordie does not index songs against artists/composers will. To remove this song please click here.

This song is displayed as text-only. Transposing and tuning is only available for chordpro-songs.

Login - add to songbook

Rating click stars to rate

Layout
Accuracy

SHARE PAGE  




You need to log in to post comments