Someday I Suppose

Mighty Mighty Bosstones

 FgmBb
Intro:( af, ga, BbaBb, aff) 5 xs ;     2xs

 FC
There was a place and the name of the place escapes me.
 FBb
 When I can't remember it irritates me.
 FC
Could be I can't remember could be I choose to not
 FBb
let's move the song along and try to find the plot.

 FC
There was a girl and I don't know her name either.
 Bb
 She gave me love and I said I'd never leave her.
 FC
If I did I'd come back someday and find her.
 Bb
 Maybe I will I should write down a reminder.

 FgmBb
One day!  one day who knows.

 FgmBb
Someday!  someday I suppose.

 FC
There was a verse that I was going to write
 Bb
I haven't yet, But there's still a chance I might
 FC
An openbook that I still want to close
 BbF
I'll find the  time someday I suppose  A place in time
 CF
want to be expand the story line that's happy in the end

(afgf, afga, bb)

 FBb
 Plans and making promises,  certainly absurd,
 Fgm
 I can't wait to shed/share these ?dreams? before they close the curtain

 FgmBb
One day!  one day who knows.
 FgmBb
Someday!  someday I suppose.

 FBb
The more I sort it out the more it gets distorted.
 gmBb
sort of think I'm better off just leaving it unsorted.
 FBb
The more I try to change its course the more off course it goes.
 gmBb
Of course I'll reach my destination someday I suppose.

 FBbgmBb
 Sort it out, get distorted one day who knows.
 FBbgmBb
Hide behind, unreported someday I suppose.

(Repeat all but 3rd verse)

|----------------------7-5-4-4-4-4h5p4-----------------------7-5-4-4-4-4h5p4---|
|--5v--------------------------------------------------------------------------|
|------------------------------------------------------------------------------|
|------------12/---22-------------------66-77-2-2-2-2-2-2-2-22-----------------|
|------------12/---22-------------------66-77-2-2-2-2-2-2-2-00-----------------|
|------------12/---00-------------------44-55-0-0-0-0-0-0-0-00-----------------|

(pm-) (pm-)

|---------------------------x-x-7-7-x-x-7-7-x-x-5-5-x-x-5-5-x-x-4-4-x-x-4-4-x--
|---------------------------x-x-9-9-x-x-9-9-x-x-5-5-x-x-5-5-x-x-4-4-x-x-4-4-x--
|---------------------------x-x-9-9-x-x-9-9-x-x-7-7-x-x-7-7-x-x-6-6-x-x-6-6-x--
|-66-77-2-2-2-2-2-2-2-22-------------------------------------------------------
|-66-77-2-2-2-2-2-2-2-22-------------------------------------------------------
|-44-55-0-0-0-0-0-0-0-00-------------------------------------------------------
                          (^^^-^^-^^-^^-^^-^^-^^play this 4x^^-^^-^^-^^-^^-^^
|-x-5-5-x-x-5-5---4h5h7-----4h5h7-7-7-4h5h7----------------------------4h5h7---
|-x-5-5-x-x-5-5----------------------------------------------------------------
|-x-7-7-x-x-7-7------------------------------------99-9-9-999-9-9-9-9----------
|-----------------------22-----------------66-77---99-9-9-999-9-9-9-9----------
|-----------------------22-----------------66-77---77-7-7-777-7-7-7-7----------
|-----------------------00-----------------44-55-------------------------------

-^^-^^-^^_^^_)

|-7-7-4h5h7---------------------------------------x-x-7-7-x-x-7-7-x-x-5-5-x-x--
|-------------------------------------------------x-x-9-9-x-x-9-9-x-x-5-5-x-x--
|------------------99-9-9-999-9-9-9-9-------12/---x-x-9-9-x-x-9-9-x-x-7-7-x-x--
|-----------66-77--99-9-9-999-9-9-9-9---2---12/--------------------------------
|-----------66-77--77-7-7-777-7-7-7-7---2---12/--------------------------------
|-----------44-55-----------------------0---12/--------------------------------
                                                (^^-^^-^^-^^-^^-^^-^^-play
|-5-5-x-x-4-4-x-x-4-4-x-x-5-5-x-x-5-5------------------------------------------
|-5-5-x-x-4-4-x-x-4-4-x-x-5-5-x-x-5-5------------------------------------------
|-7-7-x-x-6-6-x-x-6-6-x-x-7-7-x-x-7-7---------9---9----------------------------
|---------------------------------------------9---9--------7---7--------6-7----
|-------------------------------------7-7-7-7-7---7--------7---7--------6-7----
|--------------------------------------------------5-5-5-5-5---54-4-4-4-4-5----
 this 3 times-^^-^^-^^-^^-^^-^^-^^-^)
|-4h5h7---4h5h7-7-4h5h7--------------------------4h5h7-7-4h5h7-----------------
|------------------------------------------------------------------------------
|-------99--------------------99-9-9-999-9-9-9-9----------------------99-9-9---
|-------77--------------66-77-99-9-9-999-9-9-9-9----------------66-77-99-9-9---
|-------77--------------66-77-77-7-7-777-7-7-7-7----------------66-77-77-7-7---
|-----------------------44-55-----------------------------------44-55----------
|--------------------------------------|-----------------------------|---------
|--------------------------------------|-----------------------------|---------
|-999-9-9-9-9--------------------------|-----------------------------|---------
|-999-9-9-9-9--2----6----7-----6-------|-----------------------------|---------
|-777-7-7-7-7--2----6----7-----6-------|-----------------------------|-7-7-7-7-
|--------------0----4----5-----4-------|-----------------------------|---------

(^^play 4 times^^^) stop here for bass and horns

|-----------------------4-4-4-4-4h5p4p0-------------------------------4-4-5-4--
|------------------------------------------------------------------------------
|-9---------------------------------------------9------------------------------
|-9---------7---------6-------------------------9---------7---------6----------
|-7---------7---------6-----------------7-7-7-7-7---------7---------6----------
|---5-5-5-5-5-4-4-4-4-4---------------------------5-5-5-5-5-4-4-4-4-4----------
|-5-0---------7-4--------7-4--------7-4-7-7-7-7-7h9p7p5-7-7-7-7-5-5-5-5-4-4-4--
|------------------------------------------------------------------------------
|------------------------------------------------------------------------------
|------------------------------------------------------------------------------
|------------------------------------------------------------------------------
|------0-0-0-0----4-4-4-4----5-5-5-5-------------------------------------------
|-4-5-5-4-4---------------4h5h7-7-7-4h5h7--------------------------4h5h7-7-7---
|------------------------------------------------------------------------------
|-----------9-9-9-99----------------------------99-9-9-999-9-9-9-9-------------
|-----------9-9-9-99--22------------------66-77-99-9-9-999-9-9-9-9-------------
|-----------7-7-7-77--22------------------66-77-77-7-7-777-7-7-7-7-------------
|---------------------00------------------44-55--------------------------------
|-4h5h7------------------------------------------------------------------------
|------------------------------------------------------------------------------
|------------99-9-9-999-9-9-9-9------------------------------------------------
|------66-77-99-9-9-999-9-9-9-9-2----6----7----6-------------------------------
|------66-77-77-7-7-777-7-7-7-7-2----6----7----6-------------------------------
|------44-55--------------------0----4----5----4-------------------------------

(^^play 4 times^^)
Stig-


Bb C F
variations - click chord images
Transpose chords:
Tuning:
Cool service:
View: Size:
A  A  A
Rating:
Layout:
  • Currently 0/5 Stars.
  • 1
  • 2
  • 3
  • 4
  • 5
 
Accuracy:
  • Currently 0/5 Stars.
  • 1
  • 2
  • 3
  • 4
  • 5
 
click stars to rate
Chordie recommends:
Learn how to play guitar at JamPlay.com
Songbook:
Login to add this song to your songbook
Support the artist
Preview/buy this song
MSN Music
Why this non-profit ad?

 
login to add comments/video/corrections