Guitar Tabs, Chords and Lyrics


1-2-8    Mighty Mighty Bosstones



The Mighty Mighty Bosstones - "1-2-8"
Tabbed By: Kev The Gooch
Email: kevthegooch@hotmail.com

Tuning: Standard (E A D G B E)

It's a pretty easy song... this is my first tab, so have fun! Go Bosstones!

Intro
e------------------------------------------------
B------------------------------------------------
G------------------------------------------------
D--------10--------10------10/12\9---------------
A---------8---------8-------8/10\7--10--12-------
E--0-0-0-----0-0-0-----0-0-----------8--10-------

Riff 1(play each chord about 3 times)
e--0--0--0--0--0--0--0--0------------------------
B--5--7--8--7--5--7--8--10-----------------------

Verse:
e----------------------------------------------------------
B----------------------------------------------------------
G----------------------------0----0----0-------------------
D--9--5--4--2--9--5--4--2--9----5----4----2----------------
A--7--3--2--0--7--3--2--0--7----3----2----0----------------
E--0-----------0-----------0-------------------------------

Verse Part 2:
G----0---0----0---------------------------------
D--9---5----4----2------------------------------
A--7---3----2----0------------------------------
E--0--------------------------------------------

Chorus(w/ska upstroke)
e--9--9--9--9--7-7-7-7--7-7-7-7--7-7-7-7-----------------------
B-11-11-11-11--7-7-7-7--9-9-9-9--7-7-7-7-----------------------
G-11-11-11-11--8-8-8-8--9-9-9-9--8-8-8-8-----------------------
D--------------------------------------------------------------
A--------------------------------------------------------------
E--------------------------------------------------------------

Riff 2:
e--------------------------------------
B--------------------------------------
G--------5--5--------------------------
D--9--7--------9--7--------------------
A--9--7--------9--7--------------------
E--7--5--------7--5--------------------

Break: Play the Intro...

Break Part Two:

Then(w/p.m. and feedback)Play each b and e string note about 4 times
before going to the next set. To fully understand what I mean, listen


e----0---0---0---0---0---0---0----0------------------------
B--5---7---8---7---5---7---8---10---12--15--12--14--13-----
G-------------------------------------------------------14-
D----------------------------------------------------------

Order of the song:
Intro
Riff 1
Verse x2
Verse Part 2 x2
Chorus x2
Riff 2
Verse x2 (feed back in the back ground)
Verse Part Two x2
Chorus x2
Break (Just play the intro 3 times)
Break 2
Verse Part 2 x2
Chorus x4 (no guitar on the first time)

"Great..."

Thanks...

Kevin Jepson


Important: The song above is NOT stored on the Chordie server. The original song is hosted at www.xguitar.com. Chordie works as a search engine and provides on-the-fly formatting. Chordie does not index songs against artists'/composers' will. To remove this song please click here.

This song is displayed as text-only. Transposing and tuning is only available for chordpro-songs.

Login - add to songbook

Rating click stars to rate

Layout
Accuracy

SHARE PAGE  




You need to log in to post comments