"yes"; ?> Nevermind Me by Mighty Mighty Bosstones - guitar chords, guitar tabs and lyrics - chordie
E----------------7---------------------------------7-------------------|

B--9----7----7------9--10--9--7------9----7----7------9-10--9-10-9~----|
G----9-----9---9-----------------9------9----9---9---------------------|
D----------------------------------------------------------------------|
A----------------------------------------------------------------------|
E----------------------------------------------------------------------|

 C#m-A-F#m-G#
E---------------------------------------------------------|
B---------------------------------------------------------|
G---------------------------------------------------------|
D-------2------------2------------2----------2--1---------|
A--4-4----4-------4----4-------4-----4--------------4-4---|
E---------------5-----------2-------------4---------------|


 C#mAF#mG#
 He didn't hit me for a home    
 C#mAF#mG#
 Or hit me up 'cause he was cold
 C#mA
He was addicted to drugs
 F#mG#
And I could see that in his eyes
 C#mAF#mG#
What about me? Well I was only rolled

Chorus:
 F#m-E-B
E--9---9--------7-----7-----------|
B--10----10-~---9-----7-----------|
G--11-----------9-----8-----------|
D--11-----------9-----9-----------|
A--9------------7-----9-----------|
E--9------------7-----7-----------|

 F#mEB
 He didn't rob me for food It wasn't hunger, but a jonze
 F#mEB
 He needed a fix,Someone will fix my broken bones

Bridge 1 (this fill is played along):
E--0-0-0-0-0----0-0-0-0-0-0-0-0-------|
B--4-5-5-5-5--4/5-5-5-5-5-5-5-5-------|
G-------------------------------------|
D-------------------------------------|
A-------------------------------------|
E-------------------------------------|

 AEB
 And I'll feel better in the morning
 AEB
 The pain will fade as time goes by
 AEB
 What was taken, I won't miss, or I'll replace
 AEB
Nevermind me,well I'm alright

Verse(same):

He seemed to hate what he was doing
He sure knew how to get it done
Possessed by an addiction I don't have to comprehend
What about me? Well he whipped me with a gun

Repeat Chorus and Bridge 1.

Bridge 2:
 C#mAF#mG#
E-----------------------------|
B-----------------------------|
G--6-6------------------------|
D--6-6---7-7----4-4---6-6-----|
A--4-4---7-7----4-4---6-6-----|
E--------5-5----2-2---4-4-----|


 C#mAF#mG#
 I feel better in the morning,
 C#mAF#mG#
Nevermind me i'm all right

Anything wanna tell me e-mail me at ramaral@net.em.com.br


A B C#m E F#m G#
variations - click chord images
Transpose chords:
Tuning:
Cool service:
View: Size:
A  A  A
Rating:
Layout:
  • Currently 3.3/5 Stars.
  • 1
  • 2
  • 3
  • 4
  • 5
 
Accuracy:
  • Currently 3/5 Stars.
  • 1
  • 2
  • 3
  • 4
  • 5
 
click stars to rate
Chordie recommends:
Learn to play guitar with video-based, online guitar lessons at JamPlay.com
Songbook:
Login to add this song to your songbook
Support the artist
Preview/buy this song
MSN Music
Why this non-profit ad?

 
login to add comments/video/corrections