Guitar Tabs, Chords and Lyrics


Allow Them    Mighty Mighty Bosstones



Author/Artist: Mighty Mighty Bosstones
Title: Allow Them
Album: Pay Attention
Transcribed by: Derek VanKerkhove
Email: ThricePunk2117@adelphia.net

Standard Tuning

Intro (x2)
-----------------------------------------------------
-----------------------------------------------------
-----------------------------------------------------
---------------------0-5-2---------------------------
---------------------------0-3-3-0-0-3-3-0-0-5-3-0---
-0-3-3-0-0-3-3-0-0-3-------------------------------3-

1st Verse (x4)
-------------------------------------
-------------------------------------
-7--------5-----------------7--------
-7-777777-5-555555-5--------7-777777-
-5-555555-3-333333-5-555555-5-555555-
-------------------3-333333----------
pm ......   ......   ......   ......

Chorus (x2)
-7-7-x-7-7-7-x-------x-------------
-8-8-x-8-8-8-x-7-5-5-x-8-7-7x-7-7x-
-7-7-x-7-9-9-x-5-5-5-x-7-7-7x-7-7x-
-------9-9-9-x-5-5-5-x-7-7-7x-7-7x-
-----------------------------------
-----------------------------------

Interlude: Intro (x1)

2nd Verse: 1st Verse (x4)

Chorus(x4)

Bridge
------------------------------------
------------------------------------
-------7-99999999-55555555-77777777-
-55555-7-99999999-55555555-77777777-
-55555-5-77777777-33333333-55555555-
-33333------------------------------

Bridge continued
-2333-2333-2333-2333-9101010-9101010-9101010-9101010-
-2333-2333-2333-2333-9101010-9101010-9101010-9101010-
-----------------------------------------------------
-----------------------------------------------------
-----------------------------------------------------
-----------------------------------------------------

3rd Verse (x2)
------------------------------------
------------------------------------
-----------------5-7--------------5-
-5---------------5-77777777777777-5-
-5-5555555555555-3-55555555555555-3-
-3-3333333333333--------------------
pm .............   ..............

Part after 3rd Verse (1x)
-----------------------------------------
-----------------------------------------
-----5---7---5-------5---777777777777777-
-2---5---7---5---2---5---777777777777777-
-2---3---5---3---2---3---555545554555455-
-0---------------0-----------------------

4th Verse: 3rd Verse (x1) 

Important: The song above is NOT stored on the Chordie server. The original song is hosted at www.xguitar.com. Chordie works as a search engine and provides on-the-fly formatting. Chordie does not index songs against artists'/composers' will. To remove this song please click here.

This song is displayed as text-only. Transposing and tuning is only available for chordpro-songs.

Login - add to songbook

Rating click stars to rate

Layout
Accuracy

SHARE PAGE  




You need to log in to post comments