Guitar Tabs, Chords and Lyrics


Halloween    Misfits









Author/Artist: Misfits
Title: Halloween
Transcribed by: Ben Bradley
------|-------------------------------|------|-----------------------|--------
------|-------------------------------|------|-----------------------|--------
------|-2---5---10-12-2---5---10-12-2-|------|---10---10---10---10-2-|--------
-2----|-2---5---10-12-2---5---10-12-2-|------|-2-10-2-10-2-10-2-10-2-|--------
-2----|-0---3---8--10-0---3---8--10-0-|------|-2-8--2-8--2-8--2-8--0-|--------
-0----|-------------------------------|------|-0----0----0----0------|--------
 intro  riff 1                         r1 X1   riff 2

---------------------|-----------------|-------|-------|----------------------
---------------------|-----------------|-------|-------|----------------------
---10---10---10---10-|-2--------2------|-------|-------|-2--------2-----------
-2-10-2-10-2-10-2-10-|-2---12---2---12-|-------|-------|-2---12---2---2-------
-2-8--2-8--2-8--2-8--|-0---12---0---12-|-------|-------|-0---12---0---2-------
-0----0----0----0----|-----10-------10-|-------|-------|-----10-------0-------


Important: The song above is NOT stored on the Chordie server. The original song is hosted at www.xguitar.com. Chordie works as a search engine and provides on-the-fly formatting. Chordie does not index songs against artists'/composers' will. To remove this song please click here.

This song is displayed as text-only. Transposing and tuning is only available for chordpro-songs.

Login - add to songbook

Rating click stars to rate

Layout
Accuracy

SHARE PAGE  




You need to log in to post comments