Chordie logo

We Are 138    Misfits



this is my first tab i have written but i am sure it is close.

INTRO:

E-----------------------------------2
B-----------------------------------3
G-----------------------------------2
D--2--2--2--2--2--2--2--2--2--2--0
A--2--2--2--2--2--2--2--2--2--2--2
E--0--0--0--0--0--0--0--0--0--0--3

verse:(all verse are the same, speed doubles)

E-----------------------2
B-----------------------3
G-----------------------2
D-2-2-2-2-2-2-2-2-2-2-0
A-2-2-2-2-2-2-2-2-2-2-2
E-2-2-2-2-2-2-2-2-2-2-3

solo:(bend up at the "/") (played on the high E string)

-11-12-11-12-11-12-11-12-11-12-11-12-11-12-11-12-11-12-11-12-12-12-12-12-12-12
                                                          /



Important: The song above is NOT stored on the Chordie server. The original song is hosted at www.xguitar.com. Chordie works as a search engine and provides on-the-fly formatting. Chordie does not index songs against artists/composers will. To remove this song please click here.

This song is displayed as text-only. Transposing and tuning is only available for chordpro-songs.

Login - add to songbook

Rating click stars to rate

Layout
Accuracy

SHARE PAGE  

You need to log in to post comments