Guitar Tabs, Chords and Lyrics


Dirty Fingernails    Modest Mouse



---------------------------Dirty Fingernails--------------------------------

(Intro)
e|-------------------------------------------------------------|
B|----------------------------------5+b------------------------|
G|-7--7---------7--7--------7--7------------------------5+b----|
D|-x--x---------x--x--------x--x-------------5+b---------------|
A|-5--5---------5--5--------5--5-------------------------------|
E|-------------------------------------------------------------|

(Main Part)
e|-------------------------------|
B|-------------------------------|
G|-7--7+--7--7+--7--7+--7--7+----|
D|-x------x------x------x--------|
A|-5------5------5------5--------|
E|-------------------------------|

(Bent Harmonics)
e|-----------------|
B|--5+b------------|
G|-----------5+b---|
D|------5+b--------|
A|-----------------|
E|-----------------|

(Little background fill)
e|-------------------------------------------------------------------------|
B|-5---3--/10----------10p8h10-------5---3--/10----------8b10--8b10--8b10--|
G|-------------------------------------------------------------------------|
D|-------------------------------------------------------------------------|
A|-------------------------------------------------------------------------|
E|-------------------------------------------------------------------------|



Important: The song above is NOT stored on the Chordie server. The original song is hosted at www.xguitar.com. Chordie works as a search engine and provides on-the-fly formatting. Chordie does not index songs against artists'/composers' will. To remove this song please click here.

This song is displayed as text-only. Transposing and tuning is only available for chordpro-songs.

Login - add to songbook

Rating click stars to rate

Layout
Accuracy

SHARE PAGE  




You need to log in to post comments