Guitar Tabs, Chords and Lyrics


Karma's Payment    Modest Mouse



-----------------------------Karma's Payment--------------------------------

(Simulated Backwards Intro effect)
e|--------------------------------|
B|--------------------------------|
G|--------------------------------|
D|-12\10-----7\5-----9\7-----5\3--|
A|--x--x-----x-x-----x-x-----x-x--|
E|-10\-8-----5\3-----7\5-----3\1--|

(Played at the end of verses)
e|----------------------------------------------------------|
B|----------------------------------------------------------|
G|-----------------------------5--5--5--5-5-----------------|
D|-7--7--7--7-7--5--5--5--5-5--5--5--5--5-5--3--3--3--3-3---|
A|-7--7--7--7-7--5--5--5--5-5--3--3--3--3-3--3--3--3--3-3---|
E|-5--5--5--5-5--3--3--3--3-3----------------1--1--1--1-1---|

(Backround Guitar riff)
e|-------------------------------------------------------------------------|
B|-------------------------------------------------------------------------|
G|-------------------------------------------------------------------------|
D|-5-5-7-7-----------------------------------------------------------------|
A|---------7-7-7-7-5-5-5\3--3-3-3-3-3/10-10-12-12-/19-19-19-19-17-17-17-17-|
E|-------------------------------------------------------------------------|

e|----------------------------------------------------------------|
B|----------------------------------------------------------------|
G|----------------------------------------------------------------|
D|-------------17-17-19-19----------------------------------------|
A|-15-15-15-15-------------19-19-19-19-17-17-17\15-15-15-12\10-10-|


Important: The song above is NOT stored on the Chordie server. The original song is hosted at www.xguitar.com. Chordie works as a search engine and provides on-the-fly formatting. Chordie does not index songs against artists'/composers' will. To remove this song please click here.

This song is displayed as text-only. Transposing and tuning is only available for chordpro-songs.

Login - add to songbook

Rating click stars to rate

Layout
Accuracy

SHARE PAGE  




You need to log in to post comments