Guitar Tabs, Chords and Lyrics


Summer    Modest Mouse



------------------------------------Summer----------------------------------

(Intro)
e|---------------------------------------|
B|---------------------------------------|
G|---------------------------------------|
D|-----------------9-9-----9-9-----9-9---|
A|-9-9-x-x-9-9-x-x-9-9-x-x-9-9-x-x-9-9---|
E|---------------------------------------|

(Main riff)
e|---------------------------------------------------------------------|
B|---------------------------------------------------------------------|
G|---------------------------------------------------------------------|
D|-9-9-x-x-9-9-x--9-9--x--x-x-9-9-x-x-9-9-x-x-9-9--x-11-11--x--9--9--9-|
A|-9-9-x-x-9-9-x--9-9--x--x-x-9-9-x-x-9-9-x-x-9-9--x--9--9--x--9--9--9-|
E|---------------------------------------------------------------------|

Note: Pretty much just keep the right hand moving, if you know the song you'll get the rhythm.

("Chorus")
e|----------------------------------------------------------------|
B|----------------------------------------------------------------|
G|-11-11-11-11-11--x-------------11-11-11-11-11-x--12-12-11-9-7---|
D|--x--x--x--x--x--x-8-8-8-8/9-x--x--x--x--x--x-x-----------------|
A|--9--9--9--9--9--x-x-x-x-x-x-x--9--9--9--9--9-x-----------------|


Important: The song above is NOT stored on the Chordie server. The original song is hosted at www.xguitar.com. Chordie works as a search engine and provides on-the-fly formatting. Chordie does not index songs against artists'/composers' will. To remove this song please click here.

This song is displayed as text-only. Transposing and tuning is only available for chordpro-songs.

Login - add to songbook

Rating click stars to rate

Layout
Accuracy

SHARE PAGE  




You need to log in to post comments