Guitar Tabs, Chords and Lyrics


Sunspots in the House of the Late Scapegoat    Modest Mouse



-------------Sunspots in the House of the Late Scapegoat--------------------

(Intro)
e|--------------------------------------------------|
B|---3------3-----------1---------------------------|
G|-----0------0------0------------------------------|
D|-2------2-----2----x--------5h7-5p4h5-------------|
A|-------------------3------------------------------|
E|--------------------------------------------------|

(Verse)
e|----------------------------------------------------|
B|-------3-------------3------------------------------|
G|-------x-------------x--------5-------------5-------|
D|-x--x--2--x-x--x--x--2--------x-------------x-------|
A|------------------------x--x--3--x-x--x--x--3-x--x--|
E|----------------------------------------------------|

(Outro variation 1)
e|------------------------------------------------------|
B|------------------------------------------------------|
G|-9--x-x--7--x-x--5--x-x--5-5-5------------------------|
D|-x--x-x--x--x-x--x--x-x--x-x-x----7--7--7--7-x-x-5--5-|
A|-7--x-x--5--x-x--3--x-x--3-3-3----x--x--x--x-x-x-x--x-|
E|----------------------------------5--5--5--5-x-x-3--3-|

(Outro variation 2)
e|---------------------------------------------------|
B|---------------------------------------------------|
G|-9--x-x--7--x-x--5--x-x--12------------------------|
D|-x--x-x--x--x-x--x--x-x---x----7--7--7--7-x-x-5--5-|
A|-7--x-x--5--x-x--3--x-x--10----x--x--x--x-x-x-x--x-|


Important: The song above is NOT stored on the Chordie server. The original song is hosted at www.xguitar.com. Chordie works as a search engine and provides on-the-fly formatting. Chordie does not index songs against artists/composers will. To remove this song please click here.

This song is displayed as text-only. Transposing and tuning is only available for chordpro-songs.

Login - add to songbook

Rating click stars to rate

Layout
Accuracy

SHARE PAGE  




You need to log in to post comments