Guitar Tabs, Chords and Lyrics


The Waydown    Modest Mouse



-----------------------------The Waydown------------------------------------

(Intro/most of verse)
e|---------------------------------|
B|---------------------------------|
G|-7\5--5\4--4---------------------|
D|-x-x--x-x--x-------7/9----5------|
A|-5\3--3\2--2-------x-x----x------|
E|-------------------5/7----3------|

NOTE: This part is heavily improvised on. Very often changed up, but still the same notes.

(2nd part of verse)
e|--------------------------------------|
B|--------------------------------------|
G|--------------------------------------|
D|-5--5--5--5--5--5--5--5--7/9--7--5----|
A|-x--x--x--x--x--x--x--x--x-x--x--x----|


Important: The song above is NOT stored on the Chordie server. The original song is hosted at www.xguitar.com. Chordie works as a search engine and provides on-the-fly formatting. Chordie does not index songs against artists'/composers' will. To remove this song please click here.

This song is displayed as text-only. Transposing and tuning is only available for chordpro-songs.

Login - add to songbook

Rating click stars to rate

Layout
Accuracy

SHARE PAGE  




You need to log in to post comments