Guitar Tabs, Chords and Lyrics


Bury Me With It    Modest Mouse



Band: Modest Mouse
Song: Bury Me With It
Tabbed by: Arcadio

i saw them live. this looks about right

Intro
grt 1.
|------------------------------------------------------------|
|--9-9--9/10--10-10--10/12--12--12--12-12-12^*-12------------|
|--8-8--8/9----9--9---9/11--11--11--11-11-11^*-11------------|
|--x-x--x/x----x--x---x/x----x---x---x--x--x----x------------|
|--9-9--9/10--10-10--10/12--12--12--12-12-12^*-12------------|
|------------------------------------------------------------|
                                                            x2
*bend a lot on this chord


gtr 2.
w/heavy reverb (or rotary)
|---------------|------------------|
|---------------|------------------|
|-x--xx---x--xx-|--x--xx---x--xx---|
|-x--xx---x--xx-|--x--xx---x--xx---|
|-x--xx---x--xx-|--x--xx---x--xx---|
|---------------|------------------|
this part goes a long with the part above. not hard to figure out



Verse x 2

-all bass-


chorus

|------------------------------------------------------------|
|--9-9--9/10--10-10--10/12--12--12--12-12-12^*-12------------|
|--8-8--8/9----9--9---9/11--11--11--11-11-11^--11------------|
|--x-x--x/x----x--x---x/x----x---x---x--x--x----x------------|
|--9-9--9/10--10-10--10/12--12--12--12-12-12^--12------------|
|------------------------------------------------------------|
                                                            x2



-Verse x 1 and chorus x 2-

-Verse x 2 and chorus x 2-


then another verse x2 and this again:

|------------------------------------------------------------|
|--9-9--9/10--10-10--10/12--12--12--12-12-12^*-12------------|
|--8-8--8/9----9--9---9/11--11--11--11-11-11^--11------------|
|--x-x--x/x----x--x---x/x----x---x---x--x--x----x------------|
|--9-9--9/10--10-10--10/12--12--12--12-12-12^--12------------|
|------------------------------------------------------------|
                                                            x2


gtr 1. only

|-----------------------------------------------------|
|-----------------------------------------------------|
|-18-xx-16-xx-13-xx-11---\18--xx-16-xx-13-xx-11-------|
|--x-xx--x-xx--x-xx--x---\-x--xx--x-xx--x-xx--x-------|
|-16-xx-14-xx-11-xx--9---\16--xx-14-xx-11-xx--9-------|
|-----------------------------------------------------|
                                                     x2

then both guitars do this:
|----------------------------------------------------|
|----------------------------------------------------|
|--7-777777777777--6-666666666666--------------------|
|--x-xxxxxxxxxxxx--x-xxxxxxxxxxxx--------------------|
|--5-555555555555--4-444444444444--------------------|
|----------------------------------------------------|



(note: modify the strumming of this riff sometimes.)
|----------------------------------------------------------|
|----------------------------------------------------------|
|-\18-xx-16-16--xx-13-xx-11---\18--xx-16-xx-13-xx-11-------|
|-\-x-xx--x--x--xx--x-xx--x---\-x--xx--x-xx--x-xx--x-------|
|-\16-xx-14-14--xx-11-xx--9---\16--xx-14-xx-11-xx--9-------|
|----------------------------------------------------------|
                                                          x3

|---------------------|
|---------------------|
|--7-77777--6-66666---|
|--x-xxxxx--x-xxxxx---|
|--5-55555--4-44444---|
|---------------------|
                     x1

play that whole section 3 times

Back to intro

|------------------------------------------------------------|
|--9-9--9/10--10-10--10/12--12--12--12-12-12^*-12------------|
|--8-8--8/9----9--9---9/11--11--11--11-11-11^--11------------|
|--x-x--x/x----x--x---x/x----x---x---x--x--x----x------------|
|--9-9--9/10--10-10--10/12--12--12--12-12-12^--12------------|
|------------------------------------------------------------|
                                                            x2

verse x 2 chorus x 2

verse x 2 chorus x 2


then back to this:
|----------------------------------------------------------|
|----------------------------------------------------------|
|-\18-xx-16-16--xx-13-xx-11---\18--xx-16-xx-13-xx-11-------|
|-\-x-xx--x--x--xx--x-xx--x---\-x--xx--x-xx--x-xx--x-------|
|-\16-xx-14-14--xx-11-xx--9---\16--xx-14-xx-11-xx--9-------|
|----------------------------------------------------------|
                                                          x3

|---------------------|
|---------------------|
|--7-77777--6-66666---|
|--x-xxxxx--x-xxxxx---|
|--5-55555--4-44444---|
|---------------------|
                     x1

this is all played for 3 more times

then end on:

|---------------------------------------|
|--9-9--9/10--10-10--10/12--12^---------|
|--8-8--8/9----9--9---9/11--11^---------|
|--x-x--x/x----x--x---x/x----x----------|
|--9-9--9/10--10-10--10/12--12^---------|
|---------------------------------------|
                              ^whammy





Important: The song above is NOT stored on the Chordie server. The original song is hosted at www.xguitar.com. Chordie works as a search engine and provides on-the-fly formatting. Chordie does not index songs against artists'/composers' will. To remove this song please click here.

This song is displayed as text-only. Transposing and tuning is only available for chordpro-songs.

Login - add to songbook

Rating click stars to rate

Layout
Accuracy

SHARE PAGE  




You need to log in to post comments