Guitar Tabs, Chords and Lyrics


Dig Your Grave    Modest Mouse



______________________________Dig your Grave________________________________

(Whole song)
e|-------------------------------------------------------------------------|
B|---)---)----------------)---)---------)-------)---)----------)------)---)|
G|-11--10--------13-----11--10--------13------11--10---------13-----11--10-|
D|---------13-13----13----------13-13------13---------13-13------13--------|
A|-------------------------------------------------------------------------|
E|-------------------------------------------------------------------------|

e|----------------------------------|
B|----------)------)---)------------|
G|--------13-----11--10-------------|
D|-13-13------13---------13-13------|
A|----------------------------------|


Important: The song above is NOT stored on the Chordie server. The original song is hosted at www.xguitar.com. Chordie works as a search engine and provides on-the-fly formatting. Chordie does not index songs against artists'/composers' will. To remove this song please click here.

This song is displayed as text-only. Transposing and tuning is only available for chordpro-songs.

Login - add to songbook

Rating click stars to rate

Layout
Accuracy

SHARE PAGE  




You need to log in to post comments