Guitar Tabs, Chords and Lyrics


Float On    Modest Mouse



Band- Modest Mouse
Song- Float On

Rythem

Verse(Rythem)
E--6>--6>--4>--1>-
B--7>--6>--4>--2>-
G--6>--6>--4>--3>-
D-----------------
A-----------------
E-----------------

=Do each chord as needed

Chorus(Rythem)
E----6-----6-----6-----6-----4-----4-----1-----1-------
B---7-7---7-7---6-6---6-6---4-4---4-4---2-2---2-2------
G--6---6-6---6-6---6-6---6-4---4-4---4-3---3-3---3-----
D------------------------------------------------------
A------------------------------------------------------
E------------------------------------------------------


This is the lead part the part that Isaac plays……….
(Lead)
E------9-------------------9-------------------9-------------------------------------------
B----11-11-9-11-11-11-9--11-11-9-11-11-11-11--11-11-9-11-11-11-11--11-11-11-11-11-11-11-9-----
G--11------------------10-------------------8--------------------------------------------(11)-
D----------------------------------------------------------------------------------------
A-----------------------------------------------------------------------------------
E-----------------------------------------------------------------------------------

I think he might have reverb on I don’t know.


Important: The song above is NOT stored on the Chordie server. The original song is hosted at www.xguitar.com. Chordie works as a search engine and provides on-the-fly formatting. Chordie does not index songs against artists'/composers' will. To remove this song please click here.

This song is displayed as text-only. Transposing and tuning is only available for chordpro-songs.

Login - add to songbook

Rating click stars to rate

Layout
Accuracy

SHARE PAGE  




You need to log in to post comments

JJBATEAST (report)

throwed song

selso (report)

this song is played with a capo on the 8th fret