Guitar Tabs, Chords and Lyrics


The Good Times Are Killing Me   Modest Mouse

---------------------The Good Times are Killing me--------------------------



e|-x----x---|

B|-x----1---|
G|-2----0---|
D|-3----2---|
A|-3----3---|
E|-1----x---|
   [Bb]     [F]                             
(Interlude) (Capo on 5th)
e|---------------------------0------|
B|-------1--------------1--1---1----|
G|-----0--------------0-------------|
D|---2--------------2---------------|
A|-3--------------3-----------------|
E|----------------------------------|



Isaac Brock:

(Baritone Guitar)
e|------------------------------------------------------------------------|
B|------------------------------------------------------------------------|
G|------------------------------------------------------------------------|
D|------------------------------------------------------------------------|
A|--------------------------------------1--3----3--1--0---1--3----3--1--0-|
E|-1--3----3--1--0---1--3----3--1--0--------------------------------------|


(Varitation)
e|---------------------------|
B|---------------------------|
G|---------------------------| Tuning: Standard


Isaac Brock:

(Verse Chords)
e|----------------|
B|----------------|
G|-8---------6----|
D|-8---------6----|
A|-6---------4----|
E|----------------|

  [D#5]           [C#5]                        

(Chorus)
e|--------------------------------|
B|--------9-----------------------|
G|--8--8--8--9---------11--8------|
D|--8--8--6--9---------11--8--9---|
A|--6--6-----7----------9--6--9---|
E|----------------------------7---|

    [D#5]     [G#5]    [E5]         [F#5]    [D#5]    [B5]       
(Fill)
e|-----------|
B|--12----12-|
G|-----------|
D|-----------|
A|-----------|
E|-----------|



Dann Gallucci:

(Fill)
e|-------------------------------|
B|-12-----------------12p11h12---|
G|-------------------------------|
D|-------------------------------|
A|-------------------------------|
E|-------------------------------|


(PreChorus)
e|-------------|
B|-7~---4~-----|
G|---------4~--|
D|-------------|
A|-------------|
E|-------------|


(2nd Chorus)
e|-----------------------------------------------|
B|-----------------------------------------------|
G|---------8---------------8---------------------|
D|-8-9-8-9---9-----8-9-8-9---9---8-9-8-----------|
A|--------------------------------------11-11-9--|
E|-----------------------------------------------|


(Outro)
e|----------------------------------------------------|
B|----------------------------------------------------|
G|---------11---8-----------11---8--------------------|
D|-8-9-8-9----9-----8-9-8-9----9---9---8-9-8----------|
A|-------------------------------------------11-11-9--|
E|----------------------------------------------------|
D|----------------3----------|
A|-1--3----3--5-----5p3--1--|
E|---------------------------|


hope you like it worked on this for while so i guess it should be acurate

Important: The song above is NOT stored on the Chordie server. The original song is hosted at www.xguitar.com. Chordie works as a search engine and provides on-the-fly formatting. Chordie does not index songs against artists'/composers' will. To remove this song please click here.

Text color:
Chord color:
Chord grids: 
Font size:    
Page size: 

B5 Bb C#5 D#5 E5 F F#5 G#5
variations - click chord images

Login - add to songbook

Transpose chords

Tuning

Rating click stars to rate

Layout
Accuracy

SHARE PAGE  




You need to log in to post comments