Guitar Tabs, Chords and Lyrics


Ocean Breathes Salty    Modest Mouse



Title: Ocean Breathes Salty
Artist: Modest Mouse
Album: Good News For People Who Love Bad News

Instrument: 6 String Guitar

Tabbed by: Pinheadlarry3000 (Pinhealarry3000@yahoo.com)


Notes:
A pretty easy versin of the song, I'm not sure if it's correct, but this is my first
 tab, so I hope you enjoy it!

                         Beginning
E |0-3-2---3-3-0-0-3-0-3---0-3-2---3-3-0-0-3-0-7--3----------------||
B |------3-----------------------3---------------------------------||
G |----------------------------------------------------------------||
D |----------------------------------------------------------------||
A |----------------------------------------------------------------||
E |----------------------------------------------------------------||
                        (continued)
E |-3-03-0303350--00------0--(307--3)------------------------------||
B |-----------------3-3333-1---------------------------------------||
G |----------------------------------------------------------------||
D |----------------------------------------------------------------||
A |----------------------------------------------------------------||
E |----------------------------------------------------------------||
                             Verse 1
E |0-3-2---3-3-0-0-3-0-3---0-3-2---3-3-0-0-3-0-7--3----------------||
B |------3-----------------------3---------------------------------||
G |----------------------------------------------------------------||
D |(quieter than before)-------------------------------------------||
A |----------------------------------------------------------------||
E |----------------------------------------------------------------||
                              Chorus
E |-----------------------------7----------------------------------||
B |-5-5-3-3-1-1-1-3-5-5-3-3-5-5---8--------------------------------||
G |----------------------------------------------------------------||
D |----------------------------------------------------------------||
A |----------------------------------------------------------------||
E |----------------------------------------------------------------||
                              Verse 2
E |-0-32---5-53---00-32------0-------------------------------------||
B |------3------3-------3---3--------------------------------------||
G |-----------------------00---------------------------------------||
D |----------------------------------------------------------------||
A |----------------------------------------------------------------||
E |----------------------------------------------------------------||
Well thats all the important stuff, here's how it's ordered

beginning x1
verse 1 x2
chorus x2
verse 1 x2
break
chorus x5
small break
verse 2 x4


Important: The song above is NOT stored on the Chordie server. The original song is hosted at www.xguitar.com. Chordie works as a search engine and provides on-the-fly formatting. Chordie does not index songs against artists'/composers' will. To remove this song please click here.

This song is displayed as text-only. Transposing and tuning is only available for chordpro-songs.

Login - add to songbook

Rating click stars to rate

Layout
Accuracy

SHARE PAGE  




You need to log in to post comments