Guitar Tabs, Chords and Lyrics


One Chance   Modest Mouse

   [4/4] Gtr I
~
E E E E. S E E S S E E S S Q E E S S
||-----------------------|--------------------|
||o----------------------|--------------------|
||--4s5p(0)--------------|--------------------|
||--4s5p(0)-5--5-5-5-5-5-|-4-4-4-4S2--2-2-2-2-|
||o---------5--5-5-5-5-5-|-5-5-5-5S3--3-3-3-3-|
||-----------------------|--------------------|



  S S E S S [G]Q  E E S S   E E E Q  E E S S
|----------------------|---------------------||
|----------------------|--------------------o||
|----------------------|---------------------||
|-2h4-4-4p2------------|---------------------||
|-3---3-3---2--2-2-2-2-|-2-2-2-2--2-2-2-2---o||
|-----------3--3-3-3-3-|-3-3-3-3--3-3-3-3----||



Pre-Verse
  [D]Gt[C]r [G]III [G]                    [D]           [C]
Q. E. S E E S S E E S S Q E E S S
| | | | | | | | | | | | | | |
~~
E E E E. S E E S S E E S S Q E E S S
|---------------------------|-----------------------------|
|---------------------------|-----------------------------|
|-4s5p(0)-------------------|-----------------------------|
|-4s5p(0)-5----5--5--5--5-5-|--4--4--4-4S=2-----2--2--2-2-|
|---------5----5--5--5--5-5-|--5--5--5-5S=3-----3--3--3-3-|
|---------------------------|-----------------------------|

|
| Gtr II
| H E E E E E E E E E E E E
|---------------------------|-----------------------------|
|----------------12-10------|-------10------12-10----10---|
|----------------------12---|-11-12------12-------12------|
|---------------------------|-----------------------------|
|---------------------------|-----------------------------|
|---------------------------|-----------------------------|



    S  S  E  S S [G] Q   E  E  S S    E  E  E  E +H
| | | | | | | | | | | | | | |
S S E S S Q E E S S E E E E +H
|-------------------------------|---------------------------|
|-------------------------------|---------------------------|
|-------------------------------|---------------------------|
|---2h=4--4--4p2----------------|---------------------------|
|---3-----3--3----2---2--2--2-2-|--2--2--2--2-(2)-----------|
|-----------------3---3--3--3-3-|--3--3--3--3-(3)-----------|

|
| \1_____
| +E E E Q E E E E E E H +E
|-------------------------------|---------------------------|
|-(10)---12-10----------12------|----12----12-------(12)----|
|----------------12--12----12---|-12----12-12-------(12)----|
|-------------------------------|---------------------------|
|-------------------------------|---------------------------|
|-------------------------------|---------------------------|



Verse
Gtr I
>
+W Wx3
|-----------------|--------|
|-----------------|--------|
|-----------------|--------|
|-----------------|--------|
|--(2)------------|--------|
|--(3)------------|--------|

|
| Gtr II
| >
| /
| +Q +H. Wx3
|-----------------|--------|
|-(12)-(12)-------|--------|
|-(12)-(12)-------|--------|
|-----------------|--------|
|-----------------|--------|
|-----------------|--------|



Wx3 W Q Q H
|------------|----------------|--------------------|
|------------|----------------|--------------------|
|------------|----------------|--------------------|
|------------|----------------|----/(12)-----------|
|------------|----------------|--------------------|
|------------|----------------|-----------(10)\----|

|
| Wx3 E Q E E E E E Q Q H
|------------|----------------|--------------------|
|------------|----------------|--------------------|
|------------|---7--8-9---9-8-|-7------------------|
|------------|----------9-----|--------------------|
|------------|----------------|--------------------|
|------------|----------------|--------------------|



Wx2 W Q Q H
|------------|----------------|--------------------|
|------------|----------------|--------------------|
|------------|----------------|--------------------|
|------------|----------------|----/(12)-----------|
|------------|----------------|--------------------|
|------------|----------------|-----------(10)\----|

|
| ~
| Wx2 Q E E E E E E Q Q H
|------------|----------------|--------------------|
|------------|----------8-----|--------------------|
|------------|----7-8-9---9-8-|-7------------------|
|------------|----------------|--------------------|
|------------|----------------|--------------------|
|------------|----------------|--------------------|



Wx3
|--------|
|--------|
|--------|
|--------|
|--------|
|--------|



Chorus
  [D]Q.[C]  [G]    [G]E.   S  E  E  S S   [D] E  E  S S [C] Q     E  E  S S
| | | | | | | | | | | | | | |
~~
E E E E. S E E S S E E S S Q E E S S
|---------------------------|-----------------------------|
|---------------------------|-----------------------------|
|-4s5p(0)-------------------|-----------------------------|
|-4s5p(0)-5----5--5--5--5-5-|--4--4--4-4S=2-----2--2--2-2-|
|---------5----5--5--5--5-5-|--5--5--5-5S=3-----3--3--3-3-|
|---------------------------|-----------------------------|

|
| H E E E E E E E E E E E E
|---------------------------|-----------------------------|
|----------------12-10------|-------10------12-10----10---|
|----------------------12---|-11-12------12-------12------|
|---------------------------|-----------------------------|
|---------------------------|-----------------------------|
|---------------------------|-----------------------------|



    S  S  E  S S [G] Q   E  E  S S    E  E  E  E  +H
| | | | | | | | | | | | | | |
S S E S S Q E E S S E E E Q E E S S
|-------------------------------|---------------------------|
|-------------------------------|---------------------------|
|-------------------------------|---------------------------|
|---2h=4--4--4p2----------------|---------------------------|
|---3-----3--3----2---2--2--2-2-|--2--2--2--2------2-2-2-2--|
|-----------------3---3--3--3-3-|--3--3--3--3------3-3-3-3--|

|
| +E E E Q E E E E E E E +H
|-------------------------------|---------------------------|
|-(10)---12-10----------12------|----12----12-(12)----------|
|----------------12--12----12---|-12----12------------------|
|-------------------------------|---------------------------|
|-------------------------------|---------------------------|
|-------------------------------|---------------------------|



  [D]Q.[C]  [G]    [G]E.   S  E  E  S S   [D] E  E  S S [C] Q     E  E  S S
| | | | | | | | | | | | | | |
~~
E E E E. S E E S S E E S S Q E E S S
|---------------------------|-----------------------------|
|---------------------------|-----------------------------|
|-4s5p(0)-------------------|-----------------------------|
|-4s5p(0)-5----5--5--5--5-5-|--4--4--4-4S=2-----2--2--2-2-|
|---------5----5--5--5--5-5-|--5--5--5-5S=3-----3--3--3-3-|
|---------------------------|-----------------------------|

|
| H E E E E E E E E E E E E
|---------------------------|-----------------------------|
|----------------12-10------|-------10------12-10----10---|
|----------------------12---|-11-12------12-------12------|
|---------------------------|-----------------------------|
|---------------------------|-----------------------------|
|---------------------------|-----------------------------|



    S  S  E  S S [G] Q   E  E  S S    E  E  E  E  +H
| | | | | | | | | | | | | | |
S S E S S Q E E S S E E E Q E E S S
|-------------------------------|---------------------------|
|-------------------------------|---------------------------|
|-------------------------------|---------------------------|
|---2h=4--4--4p2----------------|---------------------------|
|---3-----3--3----2---2--2--2-2-|--2--2--2--2------2-2-2-2--|
|-----------------3---3--3--3-3-|--3--3--3--3------3-3-3-3--|

|
| +E E E Q E E E E E E E +H
|-------------------------------|---------------------------|
|-(10)---12-10----------12------|----12---------------------|
|----------------12--12----12---|-12----12-12-(12)----------|
|-------------------------------|---------------------------|
|-------------------------------|---------------------------|
|-------------------------------|---------------------------|



Interlude
    [B5]Gtr II
e e e e e e e e e e e e e e e e
||--7-7-7-7-7-(7)-7-7-|-7-7-7-7-7-7-7-7-|
||o-7-7-7-7-7-(7)-7-7-|-7-7-7-7-7-7-7-7-|
||--4-4-4-4-4-(4)-4-4-|-4-4-4-4-4-4-4-4-|
||--------------------|-----------------|
||o-------------------|-----------------|
||--------------------|-----------------|

|
| Gtrs I, III
| e e e e e e e e e e e e e e e e
||--------------------|-----------------|
||o-------------------|-----------------|
||--4-4-4-4-4--4--4-4-|-4-4-4-4-4-4-4-4-|
||--4-4-4-4-4--4--4-4-|-4-4-4-4-4-4-4-4-|
||o-2-2-2-2-2--2--2-2-|-2-2-2-2-2-2-2-2-|
||--------------------|-----------------|



  E [C5]Q E H  [G5]   [G/D]     [G5]W   [G/G5G]
|-7s8------------|-------------------------||
|-7s8------------|------------------------o||
|-4s5------------|-------------------------||
|----------------|-------------------------||
|----------------|------------------------o||
|----------------|-------------------------||

|
| Gtr III Gtrs I, III GtGtr I
| E Q E. Q E. S E E E S +Q.. +S
|----------------|-------------------------||
|----------------|------------------------o||
|-4s5---5-----4--|-----4---4-(4)----(4)\---||
|-4s5---5--5--5--|-5-5-5-5-5-(5)----(5)\---||
|-2s3---3--5--5--|-5-5-5-5-5-(5)----(5)\--o||
|----------3-----|-3-3---3-3-(3)----(3)\---||



Chorus 2
  [D]Gt[C]r [G]III [G]                    [D]           [C]
Q. E. S E E S S E E S S Q E E S S
| | | | | | | | | | | | | | |
Gtr I
~~
E E E E. S E E S S E E S S Q E E S S
|---------------------------|-----------------------------|
|---------------------------|-----------------------------|
|-4s5p(0)-------------------|-----------------------------|
|-4s5p(0)-5----5--5--5--5-5-|--4--4--4-4S=2-----2--2--2-2-|
|---------5----5--5--5--5-5-|--5--5--5-5S=3-----3--3--3-3-|
|---------------------------|-----------------------------|

|
| Gtr II
| H E E E E E E E E E E E E
|---------------------------|-----------------------------|
|----------------12-10------|-------10------12-10----10---|
|----------------------12---|-11-12------12-------12------|
|---------------------------|-----------------------------|
|---------------------------|-----------------------------|
|---------------------------|-----------------------------|



    S  S  E  S S [G] Q   E  E  S S    E  E  E  E  +H
| | | | | | | | | | | | | | |
S S E S S Q E E S S E E E Q E E S S
|-------------------------------|---------------------------|
|-------------------------------|---------------------------|
|-------------------------------|---------------------------|
|---2h=4--4--4p2----------------|---------------------------|
|---3-----3--3----2---2--2--2-2-|--2--2--2--2------2-2-2-2--|
|-----------------3---3--3--3-3-|--3--3--3--3------3-3-3-3--|

|
| +E E E Q E E E E E E E +H
|-------------------------------|---------------------------|
|-(10)---12-10----------12------|----12----12-(12)----------|
|----------------12--12----12---|-12----12------------------|
|-------------------------------|---------------------------|
|-------------------------------|---------------------------|
|-------------------------------|---------------------------|



  [D]Q.[C]  [G]    [G]E.   S  E  E  S S   [D] E  E  S S [C] Q    [C] E  E  S S
| | | | | | | | | | | | | | |
~~
E E E E. S E E S S E E S S Q E E S S
|---------------------------|-----------------------------|
|---------------------------|-----------------------------|
|-4s5p(0)-------------------|-----------------------------|
|-4s5p(0)-5----5--5--5--5-5-|--4--4--4-4S=2-----2--2--2-2-|
|---------5----5--5--5--5-5-|--5--5--5-5S=3-----3--3--3-3-|
|---------------------------|-----------------------------|

|
| H E E E E E E E E E E E E
|---------------------------|-----------------------------|
|----------------12-10------|-------10------12-10----10---|
|----------------------12---|-11-12------12-------12------|
|---------------------------|-----------------------------|
|---------------------------|-----------------------------|
|---------------------------|-----------------------------|



    S  S  E  S S [G] Q   E  E  S S    E  E  E  E +H
| | | | | | | | | | | | | | |
S S E S S Q E E S S E E E Q E E S S
|-------------------------------|-----------------------------|
|-------------------------------|-----------------------------|
|-------------------------------|-----------------------------|
|---2h=4--4--4p2----------------|-----------------------------|
|---3-----3--3----2---2--2--2-2-|--2--2--2--2----2-2---2---2--|
|-----------------3---3--3--3-3-|--3--3--3--3----3-3---3---3--|

|
| \1______
| +E E E Q E E E E E E H +E
|-------------------------------|-----------------------------|
|-(10)---12-10----------12------|----12----12--------(12)-----|
|----------------12--12----12---|-12----12-12--------(12)-----|
|-------------------------------|-----------------------------|
|-------------------------------|-----------------------------|
|-------------------------------|-----------------------------|



Out-Verse
>
+W Wx3
|-----------------|--------|
|-----------------|--------|
|-----------------|--------|
|-----------------|--------|
|--(2)------------|--------|
|--(3)------------|--------|

|
| >
| /
| +Q +H. Wx3
|-----------------|--------|
|-(12)--(12)------|--------|
|-(12)--(12)------|--------|
|-----------------|--------|
|-----------------|--------|
|-----------------|--------|



Q Q H Wx2 W Q Q H
|--------------------|------------|----------------|----------------------|
|--------------------|------------|----------------|----------------------|
|--------------------|------------|----------------|----------------------|
|----/(12)-----------|------------|----------------|------/(12)-----------|
|--------------------|------------|----------------|----------------------|
|-----------(10)\----|------------|----------------|-------------(10)\----|

|
| W Wx2 Q E E E E E E Q H.
|--------------------|------------|----------------|----------------------|
|--------------------|------------|----------8-----|----------------------|
|--------------------|------------|----7-8-9---9-8-|-7b8r=================|
|--------------------|------------|----------------|----------------------|
|--------------------|------------|----------------|----------------------|
|--------------------|------------|----------------|----------------------|



>
W Q Q Q. E +W Wx4
|----------|-----------------------|------------|--------*|
|----------|-----------------------|------------|--------*|
|----------|-----------------------|------------|--------*|
|----------|----/(12)--------------|------------|--------*|
|----------|-----------------------|------------|--------*|
|----------|-----------(10)---\(3)-|-(3)--------|--------*|



Duration Legend
---------------
W - whole; H - half; Q - quarter; E - 8th; S - 16th; T - 32nd; X - 64th; a - acciaccatura

+ - note tied to previous; . - note dotted; .. - note double dotted
Uncapitalized letters represent notes that are staccato (1/2 duration)
Irregular groupings are notated above the duration line
Duration letters will always appear directly above the note/fret number it represents the
duration for. Duration letters with no fret number below them represent rests. Multi-
bar rests are notated in the form Wxn, where n is the number of bars to rest for. Low
melody durations appear below the staff

Tablature Legend
----------------

h - hammer-on
p - pull-off
b - bend
pb - pre-bend
r - bend release (if no number after the r, then release immediately)
/\ - slide into or out of (from/to "nowhere")
s - legato slide
S - shift slide
- natural harmonic
(n) - artificial harmonic
n(n) - tapped harmonic
~ - vibrato
tr - trill
T - tap
TP - trem. picking
PM - palm muting
\n/ - tremolo bar dip; n = amount to dip
\n - tremolo bar down
n/ - tremolo bar up
/n\ - tremolo bar inverted dip
= - hold bend; also acts as connecting device for hammers/pulls
<> - volume swell (louder/softer)
x - on rhythm slash represents muted slash
o - on rhythm slash represents single note slash

Misc Legend
-----------

| - bar
|| - double bar
||o - repeat start
o|| - repeat end
*| - double bar (ending)
: - bar (freetime)
$ - Segno
& - Coda
Tempo markers - = BPM(8/16=s8/s16), where s8 = swing 8ths, s16 = swing 16ths


***************************************************************************************
* Generated using Power Tab Editor by Brad Larsen - http://powertab.guitarnetwork.org *
***************************************************************************************

Important: The song above is NOT stored on the Chordie server. The original song is hosted at www.xguitar.com. Chordie works as a search engine and provides on-the-fly formatting. Chordie does not index songs against artists'/composers' will. To remove this song please click here.

Text color:
Chord color:
Chord grids: 
Font size:    
Page size: 

B5 C C5 D G G/D G5
variations - click chord images

Login - add to songbook

Transpose chords

Tuning

Rating click stars to rate

Layout
Accuracy

SHARE PAGE  




You need to log in to post comments