Guitar Tabs, Chords and Lyrics


Satin in a Coffin    Modest Mouse



Modest Mouse
Satin in a Coffin

Intro
E|----------------------3--------------------3---------
B|--------3-6-3---3-------3--------3-6-3-------3-------
G|----3-5-------5---5-3--------3-5-------5-3-----------
D|--5------------------------5-------------------------
A|-----------------------------------------------------
E|-----------------------------------------------------

E|----------------------3------------------------------
B|--------3-6-3---3-------3--------3-6-3---------------
G|----3-5-------5---5-3--------3-5-------5-3-----------
D|--5------------------------5---------------5---------
A|-----------------------------------------------------
E|-----------------------------------------------------

Verse
E|--------------------
B|--------------------
G|--------------x8----
D|--------------------
A|----------1---------
E|--3-3-3-1-----------

Intro again

then the Verse part

Then at 1:06
E|-----------------------------------------------------
B|----------8-----------------8------------------------
G|-7---7-10---9----9-7---7-10---9----------------------
D|---8----------10-----8----------10-------------------
A|-----------------------------------------------------
E|-----------------------------------------------------

E|-----------------------------------------------------
B|--8-6-----------6----6--------------6----------------
G|------8-7-5-7-8---7----8-7-5-7-7--7---8-7-5-7-8-7----
D|-----------------------------------------------------
A|-----------------------------------------------------
E|-----------------------------------------------------
they sort of layer this part
E|-----------------------------------------------------------------
B|---6-----------------------6---------------6---------------------
G|-7---8-7-5-8-7-8-7-8-7-8-7---8-7-5-7-8-7-7---8-7-5-7-8-7-8-7-8-7-
D|-----------------------------------------------------------------
A|-----------------------------------------------------------------
E|-----------------------------------------------------------------

E|------------------------------------------------------
B|--8-6-----------6---------6---------------------6-----
G|------8-7-5-7-8---7-----7---8-7-5-7-8-7-8-7-8-7---8-7-
D|------------------------------------------------------
A|------------------------------------------------------
E|------------------------------------------------------

Verse

then intro

E|------------
B|------------
G|------------
D|-5----------
A|---8-6-5----
E|------------



Important: The song above is NOT stored on the Chordie server. The original song is hosted at www.xguitar.com. Chordie works as a search engine and provides on-the-fly formatting. Chordie does not index songs against artists'/composers' will. To remove this song please click here.

This song is displayed as text-only. Transposing and tuning is only available for chordpro-songs.

Login - add to songbook

Rating click stars to rate

Layout
Accuracy

SHARE PAGE  




You need to log in to post comments