Guitar Tabs, Chords and Lyrics


Jesus Christ Was an Only Child    Modest Mouse



-------------------Jesus Christ was an Only Child----------------------------

(Main riff)
e|---------7--7--x-x----------7--7--x-x----------7--7--x-x-----------------|
B|---------7--7--x-x----------7--7--x-x----------7--7--x-x--9-9-x-x-7-7-x-x|
G|-/8--7---7--7--x-x--/8--7---7--7--x-x--/8--7---7--7--x-x--9-9-x-x-7-7-x-x|
D|-/9--7---7--7--x-x--/9--7---7--7--x-x--/9--7---7--7--x-x--9-9-x-x-7-7-x-x|
A|-/9--7---7--7--x-x--/9--7---7--7--x-x--/9--7---7--7--x-x--7-7-x-x-5-5-x-x|
E|-/7--7---7--7--x-x--/7--7---7--7--x-x--/7--7---7--7--x-x-----------------|

(Alternated riff)
e|---------5--5--x-x----------5--5--x-x----------5--5--x-x-----------------|
B|---------5--5--x-x----------5--5--x-x----------5--5--x-x--7-7-x-x-5-5-x-x|
G|-/6--5---5--5--x-x--/6--5---5--5--x-x--/6--5---5--5--x-x--7-7-x-x-5-5-x-x|
D|-/7--5---5--5--x-x--/7--5---5--5--x-x--/7--5---5--5--x-x--7-7-x-x-5-5-x-x|
A|-/7--5---5--5--x-x--/7--5---5--5--x-x--/7--5---5--5--x-x--5-5-x-x-3-3-x-x|


Important: The song above is NOT stored on the Chordie server. The original song is hosted at www.xguitar.com. Chordie works as a search engine and provides on-the-fly formatting. Chordie does not index songs against artists'/composers' will. To remove this song please click here.

This song is displayed as text-only. Transposing and tuning is only available for chordpro-songs.

Login - add to songbook

Rating click stars to rate

Layout
Accuracy

SHARE PAGE  




You need to log in to post comments