Guitar Tabs, Chords and Lyrics


Shit Luck    Modest Mouse



This song is one of the coolest songs ever. One guitar is not enough to make
    this song sound the way it does but, i know a lot of people who like it so...

Tuning: Standard

You have to practice this song a lot because it's fast and really hard.

|-------------------------------|
|-------------------------------|
|-------------------------------|
|--------------7--9-------------|
|--------7--9--------7--9-------|   Repeat
|--7--9-------------------------|

It doesn't look hard, but believe me, it is.

This next part has distortion

|--------------------|
|--------------------|
|------9^------9^----|    ^= pull up on strings
|--7^--9^--7^--9^----|
|--7^------7^--------|
|--------------------|



Important: The song above is NOT stored on the Chordie server. The original song is hosted at www.xguitar.com. Chordie works as a search engine and provides on-the-fly formatting. Chordie does not index songs against artists'/composers' will. To remove this song please click here.

This song is displayed as text-only. Transposing and tuning is only available for chordpro-songs.

Login - add to songbook

Rating click stars to rate

Layout
Accuracy

SHARE PAGE  




You need to log in to post comments