Guitar Tabs, Chords and Lyrics


3rd Planet   Modest Mouse

-------------------------------------------------------------------


-------------------------------------------------------------------


-------------------------------------------------------------------

---9------12------9------12------9------12-----9h10p9h10p9---------
------10------10-----10------10-----10------10---------------------
-------------------------------------------------------------------
--------------------------------------------------------------------
--------------------------------------------------------------------
-----------------------------------------------------------------12-
---9------9h10--10p9--9------9h10-10p9--9------9h10-10p9--9---------
------10-----------------10----------------10----------------10-----
--------------------------------------------------------------------
--------------------------------------------------------------------
--------------------------------------------------------------------
-----------------------------------------------------------------12-
---9------9h10--10p9--9------9h10-10p9--9------9h10-10p9--9---------
------10-----------------10----------------10----------------10-----
--------------------------------------------------------------------
-------------------------------------------------------------------
-------------------------------------------------------------------
-------------------------------------------------------------------
---9------12------9------12------9------12-----9h10p9h10p9---------
------10------10-----10------10-----10------10---------------------
-------------------------------------------------------------------
-------------------------------------------------------------------
-------------------------------------------------------------------
-------------------------------------------------------------------
---9------12------9------12------9------12-----9h10p9h10p9---------
------10------10-----10------10-----10------10---------------------
-------------------------------------------------------------------
-------------------------------------------------------------------
-------------------------------------------------------------------
-------------------------------------------------------------------
---9------12------9------12------9------12------9------12----------
------10------10-----10------10-----10------10-----10------10------
-------------------------------------------------------------------
-------------------------------------------------------------------
-------------------------------------------------------------------
-------------------------------------------------------------------
---9------12------9------12------9------12------9------12----------
------10------10-----10------10-----10------10-----10------10------
-------------------------------------------------------------------
[G////]      [D////]      [C////]      [C////]                   
[G]Your heart felt [D]good it was [C]dripping pitch and made of wood
[G]Your hands and [D]knees felt [C]cold and wet on the grass to me
Chords continue until...


-------------------------------------------------------------------
-------------------------------------------------------------------
----------12-------------------------------------------------------
-------9------9------------------------------------9h10p9----------
---10----------------9h10p9---------7--9--7-----7------------------
-----------------10----------10--8-----------8---------------------
-------------------------------------------------------------------
-------------------------------------------------------------------
----------12-------------------------------------------------------
-------9------9------------------------------------9h10p9----------
---10----------------9h10p9---------7--9--7-----7------------------
-----------------10----------10--8-----------8---------------------


Well a third had just been made... was it a daughter

-------------------------------------------------------------------
-------------------------------------------------------------------
----------12-------------------------------------------------------
-------9------9------------------------------------9h10p9----------
---10----------------9h10p9---------7--9--7-----7------------------
-----------------10----------10--8-----------8---------------------



And it occured to me that... oceans in our bodies


Until...

[G]    [D]    [D]                             
[G]Your heart felt [D]good it was [C]dripping pitch and made of wood

[G]Your hands and [D]knees felt [C]cold and wet on the grass to me
This backward-sounding riff plays over the GDC part:


-------------------------------------------------------------------
-------------------------------------------------------------------
-------------------------------------------------------------------
--10--10--10--10--10--9--------------------------------------------
-------------------------11--9--11--9------------------------------
-------------------------------------------------------------------



Then...


-------------------------------------------------------------------
-------------------------------------------------------------------
-------------------------------------------------------------------
-------9--12--9------------------------------------9h10p9----------
---10----------------9h10p9---------7--9--7-----7------------------
-----------------10----------10--8-----------8---------------------


Well a third had just been made...


Until...


--------------------------------------------------------------------
--------------------------------------------------------------------
-----------------------------------------------------------------12-
---9------9h10--10p9--9------9h10-10p9--9------9h10-10p9--9---------
------10-----------------10----------------10----------------10-----
--------------------------------------------------------------------
-------------------------------------------------------------------
-------------------------------------------------------------------
-------------------------------------------------------------------
---9------12------9------12------9------12-----9h10p9h10p9---------
------10------10-----10------10-----10------10---------------------
-------------------------------------------------------------------


Everything that keeps me togeher... ***ing people over.


**********************************************

I've been using the Third Planet tab on your site for some time now,
but,
after seeing Modest Mouse in concert, noticing some differences, then
paying
closer attention to the recording, I have come up with some corrections
[and]clarifications.

For the "Well, a third had just been made..." part, it goes

---------|-------------|--------|--------------|
---------|-------------|--------|--------------|
-----12--|-------------|--------|--------------|
---9----9|-------------|--------|-----9h10-9h10|
10-------|---9h10------|--7-10-7|---7----------|
---------|10------12-10|7-------|8-------------|


It's a little harder to sing along this way, never really getting
more than
a moment's rest in hand position, but the difference is noticable,
especially
when playing along with the recording.

The "Your heart felt good..." chords are fingered something like this

[G]     [D]   [C]                                                                 
10-----------------------------
10--10--8----------------------
-0---0--0----------------------
-9---0--0----------------------
10---9--7----------------------
----10--8----------------------


I suppose everybody knows that, in the second riff, the last note is a
harmonic... being Modest Mouse fans and all...

There's other little differences here and there, which it pays to
notice, but
nothing that couldn't be gotten by careful listening, and nothing worth
tabbing out.


***********************************************
-------------------------------------
-----0----3---0---3---0---3---0----
--------0---0---0---0---0---0-----
-------------------------------------
----------------------------------
---------------------------------
------------------------------------------3
----0---0-1-0-----0-1-0----0-1-0---
------0---------0---------0---------0----
-----------------------------------------
-----------------------------------------
----------------------------------------


**********************************************

Important: The song above is NOT stored on the Chordie server. The original song is hosted at www.xguitar.com. Chordie works as a search engine and provides on-the-fly formatting. Chordie does not index songs against artists'/composers' will. To remove this song please click here.

Text color:
Chord color:
Chord grids: 
Font size:    
Page size: 

C D G
variations - click chord images

Login - add to songbook

Transpose chords

Tuning

Rating click stars to rate

Layout
Accuracy

SHARE PAGE  




You need to log in to post comments